Oops, an error
Loading. Please wait.

The Mirrors Truth Bass Tab

version 2
version 2

Whole song

2,228 views 1 this week
1 commentread comment
1 2 3 4 5
3 more votes to show rating
add to favorites
launch autoscroll
font size
0
reset
guitar tuner
Autoscroll
slow
fast
+/-
esc
set tempo
stop
Help us to improve Ultimate-Guitar.com Take our survey!
×
Author
-------------------------------------------------------------------------------
			     THE MIRRORS TRUTH-IN FLAMES
-------------------------------------------------------------------------------

Tabbed By :Guillermo Gonzalez Merlin
e-mail: memo_gmerlin@hotmail.com

Tuning:G# D# A# F A#

Intro (00:03)

G#|---------------------------------------------------------------------------|
D#|---------------------------------------------------------------------------|
A#|---------------------------------------------------------------------------|
F|--------------------3--------------------------------3----------------------|
A#|---------------3-5------------------------------3-5------------------------|

Verse (00:11)
|----------------------|
|----------------------|
|----------------------|
|--5-----1-------3-----|    x8
|----0-3---0-3-5-------|

Bridge (00:22)
|---------------------------------------------------------------------------|
|---------------------------------------------------------------------------|
|---------------------------------------------------------------------------|
|-----5-----1-1-1-3-3-3-3-3---------5---------------------------------------|
|-0-0---------------------------0-0------8-8-8-5-5-5-5-5--------------------|

|---------------------------------------------------------------------------|
|---------------------------------------------------------------------------|
|---------------------------------------------------------------------------|
|-----5-----1-1-1-3-3-3-3-3---------5---------------------------------------|
|0-0----------------------------0-0------8-8-8-3-3-3-3-3--------------------|


Verse x4(00:33)


Pre-Chorus (00:38)
|---------------------------------------------------------------------------|
|---------------------------------------------------------------------------|
|---------------------------------------------------------------------------|
|-----5-----1-1-1-3-3-3-3-3---------5---------------------------------------|
|-0-0---------------------------0-0------8-8-8-5-5-5-5-5--------------------|

|---------------------------------------------------------------------------|
|---------------------------------------------------------------------------|
|---------------------------------------------------------------------------|
|-----5-----1-1-1-3-3-3-3-3---------5---------------------------------------|
|0-0----------------------------0-0------8-8-8-3-3-3-3-3--------------------|

|-----------------------------------------|
|-----------------------------------------|
|-----------------------------------------|
|-----------------------------------------|
|-5-5-5-5-5-5-5-5--8-8-8-8-10-10-10-10----|

Chorus (00:51)
|---------------------------------------------------------------------------|
|---------------------------------------------------------------------------|
|-----------------------------------------------5-7-5-----------------------|
|-------------------1-1---1-1-1-1-1---3-3---3-3-----------------------------|
|-0-0---0-0-0-0-0--------------------------------------5-5-5-5-5-5-5-5------|

|---------------------------------------------------------------------------|
|---------------------------------------------------------------------------|
|-----------------------------------------------5-7-5-----------------------|
|-------------------1-1---1-1-1-1-1---3-3---3-3--------5-5-5-7-7-8-8-10-----|
|-0-0---0-0-0-0-0-----------------------------------------------------------|

Break (01:02)
|----------------------------------------------------------------
|----------------------------------------------------------------|
|---------------------------------------------------3------------|
|--------------------5-------------------------------------------|
|-0-0----3-5-3---0-0----7-5-7-5---0-0---3-5-3---0-0----5-7-8-----|

|----------------------------------------------------------------|
|----------------------------------------------------------------|
|----------------------------------------------------------------|
|-------------------5--------------------------------------0-----|
|-0-0----3-5-3--0-0---7-5-7-5--0-0-0-0-2-0-0-0-0-0-0-0-0-2-------|


Verse x4   (01:13)

Pre-Chorus (01:18)

Chorus x2  (01:33)

Break      (01:52)

Chorus     (02:03)


Bridge (02:16)
|------------|
|------------|
|------------|
|------------|
|---0--------|


Chorus x2 (02:20)


Outro (02:31)
|---------------------------------------------------------------------------|
|---------------------------------------------------------------------------|
|---------------------------------------------------------------------------|
|-----5-----1-1-1-3-3-3-3-3---------5---------------------------------------|
|-0-0---------------------------0-0------8-8-8-5-5-5-5-5--------------------|

|---------------------------------------------------------------------------|
|---------------------------------------------------------------------------|
|---------------------------------------------------------------------------|
|-----5-----1-1-1-3-3-3-3-3---------5---------------------------------------|
|0-0----------------------------0-0------8-8-8-3-3-3-3-3--------------------|

|----------------------|
|----------------------|
|----------------------|
|--5-----1-------3-----|   x2 
|----0-3---0-3-5-------|


| /  slide up
| \  slide down
| h  hammer-on
| p  pull-off
| ~  vibrato
| +  harmonic
| x  Mute note
===============================================================================
Suggest correction
Give kudos to tab author, rate the tab!
1 2 3 4 5
comments
print report bad tab
1 comment total.
0 reply
dysti 22 Sep 26, 2010 02:45 AM

this tab is headed in the right direction, but most of the low open A#s are either played an octave higher than tabbed (especially in the choruses) or as chords with both octaves being sounded.

guest
You may want to rate the tab now too:
select rating
Wanna post a correction for this tab? Suggest correction