Oops, an error
Loading. Please wait.

The Quiet Place Tab

version 1
version 1

Intro

Whole song

4,019 views 6 this week
no commentswrite comment
1 2 3 4 5
accurate
x 4
add to favorites
launch autoscroll
font size
0
reset
how to read this tab
guitar tuner
Autoscroll
slow
fast
+/-
esc
set tempo
stop
Help us to improve Ultimate-Guitar.com Take our survey!
×
Author
Drop A# (A# F A# D# G C)

Intro


C |-------------17-17-17-17---------------------------------------17-17-17-17----|
G |-15-15-15-15-------------18-18-18-18-15-15-15-15------------------------------|
D#|--------------------------------------------------15-15-15-15-----------------|
A#|------------------------------------------------------------------------------|
F |------------------------------------------------------------------------------|
A#|------------------------------------------------------------------------------|

C |----------------------18-18--17-17-17-17-22-22-22-22-17-17-17-17-------------|
G |-18-18-18-18-18-18-18--------------------------------------------18-18-18-18-|
D#|-----------------------------------------------------------------------------|
A#|-----------------------------------------------------------------------------|
F |-----------------------------------------------------------------------------|
A#|-----------------------------------------------------------------------------|

C |--18-18-17/20-20----20----20----20--------|
G |-----------------22----22----20----20-----|
D#|------------------------------------------|
A#|------------------------------------------|
F |------------------------------------------|
A#|------------------------------------------|

plese rate
Suggest correction
comments
print report bad tab
guest
You may want to rate the tab now too:
select rating
Wanna post a correction for this tab? Suggest correction