Oops, an error
Loading. Please wait.

The Quiet Place Tab

version 2
version 2

Intro

Whole song

5,062 views 1 this week
no commentswrite comment
1 2 3 4 5
accurate
x 3
add to favorites
launch autoscroll
font size
0
reset
how to read this tab
guitar tuner
Autoscroll
slow
fast
+/-
esc
set tempo
stop
Help us to improve Ultimate-Guitar.com Take our survey!
×
Author
Difficulty
intermediate
Tuning: drop C (CGCFAD)
Song: The Quiet Place
Artist: In Flames
Album: Soundtrack to Your Escape
Transcribed by: Tyler Marley

Intro:
D|-----3-------4--------3-------6-|
A|--------------------------------|
F|-5--------5-------5-------5-----|
C|--------------------------------|
G|--------------------------------|
C|--------------------------------|

D|--------------------------------------------------------------------------|
A|-----------------------------------------20-20-20-20-16-16-16-16----------|
F|-17-17-17-17-17-17-17-17-17-17-17-17-17--------------------------17-17-17-|
C|--------------------------------------------------------------------------|
G|--------------------------------------------------------------------------|
C|--------------------------------------------------------------------------|

D|--------15-15-15-15--------------16-15----20-20-20-20----------------------|
A|--------------------16-16-16-16-----------------------20-20-20-20----------|
F|------------------------------------------------------------------20-20-20-|
C|-18------------------------------------------------------------------------|
G|---------------------------------------------------------------------------|
C|---------------------------------------------------------------------------|

D|-16-------16--------18----18-----14----|
A|-------18----18--18----18-----16----16-|
F|---------------------------------------|
C|---------------------------------------|
G|---------------------------------------|
C|---------------------------------------|
Suggest correction
Give kudos to tab author, rate the tab!
1 2 3 4 5
comments
print report bad tab
guest
You may want to rate the tab now too:
select rating
Wanna post a correction for this tab? Suggest correction