Oops, an error
Loading. Please wait.

The Quiet Place Tab

version 2
version 2

Whole song

12,113 views 9 this week
8 commentsread comments
1 2 3 4 5
excellent!
x 6
add to favorites
launch autoscroll
font size
0
reset
how to read this tab
guitar tuner
Tab Pro tools
  • play this tab
  • loop segment
  • change instrument
  • show fretboard
  • metronome
×
Best way to learn
"The Quiet Place"
Autoscroll
slow
fast
+/-
esc
set tempo
stop
Contributor
All credit for this song goes to: Neonix

Lead Intro

--------------------------17-17-17-|
-----------15-15-15-15-15----------|
-----------------------------------|
-----------------------------------|
-----------------------------------|
-----------------------------------|


   S  S  S  S  S  S  S  S  S  S  S  S  S  S  S  S
--17-------------------------------------18-18-18-|
-----18-18-18-18-15-15-15-------------------------|
--------------------------15-15-15-15-15----------|
--------------------------------------------------|
--------------------------------------------------|
--------------------------------------------------|


   S  S  S  S  S  S  S  S  S  S  S  S  S  S  S  S
--18-------------------18-17-17-17-17-17-22-22-22-|
-----18-18-18-18-18-18----------------------------|
--------------------------------------------------|
--------------------------------------------------|
--------------------------------------------------|
--------------------------------------------------|


   S  S  S  S  S  S  S  S  S  S  S  S  S  S  S  S
--22-17-17-17-17----------18-18-18-18-18----18----|
-----------------18-18-18----------------18----18-|
--------------------------------------------------|
--------------------------------------------------|
--------------------------------------------------|
--------------------------------------------------|


   S  S  S  S  S  S  S  S   S    S    S    S    S    S    S    S
-----20----20----20----20------(20)------(20)------(20)------(20)-|
--22----22----20----20----(20)------(20)------(20)------(20)------|
------------------------------------------------------------------|
------------------------------------------------------------------|
------------------------------------------------------------------|
------------------------------------------------------------------|
Repeat 3x

Rhythm 1 Intro

   S S S S S S S S S   S  S  S S S S S
|--------------------------------------|
|--------------------------------------|
|--7-7-7-7-9-9-9-9-10-10-10-10-9-7-7-7-|
|--------------------------------------|
|--5-5-5-5-7-7-7-7--8--8--8--8-7-5-5-5-|
|--------------------------------------|


  S S S S S S S S S S S S S S S S
----------------------------------|
----------------------------------|
--3-3-3-3-3-3-3-3-3-3-3-3-3-3-3-3-|
----------------------------------|
--1-1-1-1-1-1-1-1-1-1-1-1-1-1-1-1-|
----------------------------------|
Repeat x4


Rhythm 2 Intro
   S S S S S S S S S S S S S S S S
|----------------------------------|
|----------------------------------|
|----------------------------------|
|----------------------------------|
|--0-0-0-0-0-0-0-0-0-0-0-0-0-0-0-0-|
|--0-0-0-0-0-0-0-0-0-0-0-0-0-0-0-0-|


  S S S S S S S S S S S S S S S S    S S S S S S S S S S S S S S S S
----------------------------------|----------------------------------|
----------------------------------|----------------------------------|
----------------------------------|----------------------------------|
----------------------------------|----------------------------------|
--5-5-5-5-5-5-5-5-8-8-8-8-8-8-8-8-|--0-0-0-0-0-0-0-0-0-0-0-0-0-0-0-0-|
--5-5-5-5-5-5-5-5-8-8-8-8-8-8-8-8-|--0-0-0-0-0-0-0-0-0-0-0-0-0-0-0-0-|


  S S S S S S S S S S S S S S S S
----------------------------------|
----------------------------------|
----------------------------------|
----------------------------------|
--5-5-5-5-5-5-5-5-3-3-3-3-3-3-3-3-|
--5-5-5-5-5-5-5-5-3-3-3-3-3-3-3-3-|
Repeat x4


  S E  S S E  S S E  S S E  S
|------------------------------|
|------------------------------|
|------------------------------|
|----5--5---5--5---5--5---5--5-|
|--x-3--3-x-3--3-x-3--3-x-3--3-|
|------------------------------|

End with ^

---------------------------------------------------


Lead Verse


  T T T T T T T T T T T T T T T T T T T T T T T T T T T T T T T T
------------------------------------------------------------------|
------------------------------------------------------------------|
------------------------------------------------------------------|
----------------------7---7---7---7-------------------------------|
--5---5---5---5---5-------------------8---8---8---8---5---5---5---|
------------------------------------------------------------------|


  T T T T T T T T T T T T T T T T T T T T T T T T T T T T T T T T
------------------------------------------------------------------|
------------------------------------------------------------------|
------------------------------------------------------------------|
----------------------8---8---8---8-----------------------8---8---|
--5---5---5---5---5-------------------8---8---8---8---5-----------|
------------------------------------------------------------------|


  T T T T T T T T T T T T T T T T T T T T T T T T T T T T T T T T
------------------------------------------------------------------|
------------------------------------------------------------------|
------------------------------------------------------------------|
----------------------7---7---7---7-------------------------------|
--5---5---5---5---5-------------------8---8---8---8---5---5---5---|
------------------------------------------------------------------|


  T T T T T T T T T T T T T T T T T T T T T T T T T T T T T T T T
------------------------------------------------------------------|
------------------------------------------------------------------|
------------------------------------------------------------------|
----------------------8---8---8-----------------------------------|
--5---5---5---5---5---------------3---3---3---3---3---3---3---3---|
------------------------------------------------------------------|
Repeat x2

Rhythm Verse


  E  E  Q    H           E  E  Q    H           E  E  Q    H
----------------------|----------------------|----------------------|
----------------------|----------------------|----------------------|
----------------------|----------------------|----------------------|
----------------------|----------------------|----------------------|
--0--0----------------|--5--5----------------|--0--0----------------|
--0--0----------------|--5--5----------------|--0--0----------------|


             PM      PM
  E  E  Q    S  E  S S  E  S
-----------------------------|
-----------------------------|
-----------------------------|
----------------5--5----5--5-|
--5--5-------3--3--3-3--3--3-|
--5--5-----------------------|
Repeat x2

-------------------------------------
Bridge to Chorus

  E  E  S  E  S E  E  S E  S    E  E  S  E  S E  E  S  E  S
-----------------------------|------------------------------|
-----------------------------|------------------------------|
-----------------------------|------------------------------|
-----------------------------|------------------------------|
--0--0--0/-8--7-0--0--0-8--7-|--3--3-----3--3-3--3-----3--3-|
--0--0--0/-8--7-0--0--0-8--7-|--3--3--3--3--3-3--3--3--3--3-|


                                      PM       PM PM PM PMPM PM PM PM
  E  E  S  E  S E  E  S E  S    E  E  S  E  S  S  S  S  S S  S  S  S
-----------------------------|----------------------------------------|
-----------------------------|----------------------------------------|
-----------------------------|----------------------------------------|
-----------------------------|----------------------------------------|
--0--0--0/-8--7-0--0--0-8--7-|--3--3-----3--3-10-10-10-10-7--7--7--7--|
--0--0--0/-8--7-0--0--0-8--7-|--3--3--3--3--3-10-10-10-10-7--7--7--7--|

-----------------------------------------------------------------------

Chorus

Repeat Intro For all Instruments
-----------------------------------------------

Interlude
                                              PM PM
  E  E  H.              E  E  H.              E  E  H.
---------------------|---------------------|---------------------|
---------------------|---------------------|---------------------|
---------------------|---------------------|---------------------|
---------------------|---------------------|---------------------|
--0--0---------------|--0--0---------------|--0--0---------------|
--0--0---------------|--0--0---------------|--0--0---------------|


  E  E  H         Q        E  E  S E  S E  E  S E  S
------------------------|----------------------------|
------------------------|----------------------------|
------------------------|----------------------------|
------------------------|----------------------------|
--0--0-----------12\----|--5--5--5-5--5-5--5--5-3--3-|
--0--0-----------12\----|--5--5--5-5--5-5--5--5-3--3-|


  E  E  S E  S E  E  S E  S    E  E  S E  S E  E  S E  S
----------------------------|----------------------------|
----------------------------|----------------------------|
----------------------------|----------------------------|
----------------------------|----------------------------|
--5--5--5-5--5-5--5--5-3--3-|--5--5--5-5--5-5--5--5-3--3-|
--5--5--5-5--5-5--5--5-3--3-|--5--5--5-5--5-5--5--5-3--3-|


  E  E  S E  S  S  S  S  S S  S  S  S     W
---------------------------------------|-------------------|
---------------------------------------|-------------------|
---------------------------------------|-------------------|
---------------------------------------|--0----------------|
--5--5--5-5--5-10-10-10-10-7--7--7--7--|--0----------------|
--5--5--5-5--5-10-10-10-10-7--7--7--7--|--0----------------|

Lead Guitar Plays Intro
-------------------------------------------

Song Order:

Intro
Verse
Chorus
Verse
Chorus
Interlude
Chorus/Outro

Duration Legend
---------------
W - whole
H - half
Q - quarter
E - 8th
S - 16th
T - 32nd
X - 64th
. - note dotted
|-n-|  - n-tuplets


Tablature Legend
----------------
L - tied note
x - dead note
g - grace note
(n) - ghost note
> - accentuded note
NH - natural harmonic
AH - artificial harmonic
TH - tapped harmonic
SH - semi harmonic
PH - pitch harmonic
h - hammer on
p - pull off
b - bend
br - bendRelease
pb - preBend
pbr - preBendRelease
brb - bendReleaseBend
\n/ - tremolo bar dip
\n - tremolo bar dive
-/n - tremolo bar Release up
/n\ - tremolo bar inverted dip
/n - tremolo bar return
-\n - tremolo bar Release down
S - shift slide
s - legato slide
/ -  slide into from below or out of upwards
\ -  slide into from above or out of downwards
~ - vibrato
W - wide vibrato
tr - trill
TP - tremolo picking
T - tapping
S - slap
P - pop
< - fade in
^ - brush up
v - brush down
comments
print report bad tab
8 comments total. Showing first comments.
0 reply
in_the_mass wrote on March 25 2010, 06:49 pm

you got a tuning?

0 reply
DiSTuRBeD -26- wrote on March 26 2010, 06:48 am

Sorry, its in Drop Bb

0 reply
lucasbzerbe wrote on September 26 2010, 02:12 pm

how would u play
|--------------------------------------|
|--7-7-7-7-9-9-9-9-10-10-10-10-9-7-7-7-|
|--------------------------------------|
|--5-5-5-5-7-7-7-7--8--8--8--8-7-5-5-5-|
|--------------------------------------|without striking that d# string between 5 n 7

I want to post or [tab]
guest
You may want to rate the tab now too:
select rating
Please do not post tabs as comments. Select "correction" instead!