Oops, an error
Loading. Please wait.

Through My Eyes Tab

version 1
version 1

Whole song

Interactive

67 views 9 this week
no commentswrite comment
1 2 3 4 5
3 more votes to show rating
add to favorites
launch autoscroll
font size
0
reset
how to read this tab
guitar tuner
Autoscroll
slow
fast
+/-
esc
set tempo
stop
Help us to improve Ultimate-Guitar.com Take our survey!
×
Author
Difficulty
Tuning
intermediate
A# F A# D# G C
In Flames
Through My Eyes
Album: Battles

TABBED BY Mobzilla

Dropped A tuning: A#-F-A#-D#-G-C

[Intro]

  Guitar 1:
C |-----------------------------------------------------------------|
G |-----------------------------------------------------------------|
D#|-----------------------------------------------------------------|
A#|--------------------------7-5------------------------2-3-2-------|
F |-------5------8-----3---------8-5--------8-----0-3-5-------3-----|
A#|-0-0-0-0--0-0---0-0---0-0-------0--0-0-0---0-0-------------------|

  Guitar 2:
C |-----------------------------------------------------------------|
G |-----------------------------------------------------------------|
D#|-----------------------------------------------------------------|
A#|--------------------------7-5------------------------------------|
F |-------5----------------------8-5--------------------------------|
A#|-0-0-0-0------------------------0--------------------------------|
          (let ring)              (let ring)  

  Guitar 1:
C |----------------------------------------------------------------|
G |----------------------------------------------------------------|
D#|----------------------------------------------------------------|
A#|-------------------------7-5------------------7-5-7-8-7-5-------|
F |-----5-------8-----3---------8-5--------8-----------------8-----|
A#|-----0-0-0-0---0-0---0-0-------0--0-0-0---0-0-------------------|
                                                 *(Guitar 2 only plays this part on this bar)


  Both guitars together:
C |-----------------------------------------------------------------------|
G |-----------------------------------------------------------------------|
D#|-----------------------------------------------------------------------|
A#|------------------------------7-5--------------------------2-3-2-------|
F |------5-------8-------3-----------8-5--------8-------0-3-5-------3-----|
A#|------0-0-0-0---0-0-0---0-0-0-------0--0-0-0---0-0-0-------------------|
                   *       *                      *

C |-----------------------------------------------------------------------|
G |-----------------------------------------------------------------------|
D#|-----------------------------------------------------------------------|
A#|------------------------------7-5--------------------7-5-7-8-7-5-------|
F |------5-------8-------3-----------8-5--------8-------------------8-----|
A#|------0-0-0-0---0-0-0---0-0-0-------0--0-0-0---0-0-0-------------------|
                   *       *                      *

*Exrta note as compared to intro

            
 [Verse]
C |------------------------------------------|
G |------------------------------------------|
D#|------------------------------------------|
A#|----6-s-7-7-7-----6-s-7-7-7----6-s-7-s-6--|
F |----6-s-7-7-7-----6-s-7-7-7----6-s-7-s-6--|
A#|----6-s-7-7-7-----6-s-7-7-7----6-s-7-s-6--|(x4)
           X X           X X

C |-----------------------------------------------------------------------|
G |-----------------------------------------------------------------------|
D#|-----------------------------------------------------------------------|
A#|------------------------------7-5--------------------------2-3-2-------|
F |------5-------8-------3-----------8-5--------8-------0-3-5-------3-----|
A#|------0-0-0-0---0-0-0---0-0-0-------0--0-0-0---0-0-0-------------------|
                  *       *                      *

C |------------------------------------------|
G |------------------------------------------|
D#|------------------------------------------|
A#|----6s7s6-6-6-----6s7s6-6-6-----6s7s6-----|
F |----6s7s6-6-6-----6s7s6-6-6-----6s7s6-----|
A#|----6s7s6-6-6-----6s7s6-6-6-----6s7s6-----|(x4)
          X X           X X


[Pre-Chorus]

C |----------------------------------------------------------------------------|
G |----------------------------------------------------------------------------|
D#|----------------------------------------------------------------------------|
A#|------8-----8-----7-----7-----5-----5-----5-----5---------------------------|
F |------8-8-8-8-0-0-7-7-7-7-0-0-5-5-5-5-5-5-5-5-5-5---------------------------|
A#|------8-8-8-8-0-0-7-7-7-7-0-0-5-5-5-5-5-5-5-5-5-5---------------------------|
          X X   X X   X X   X X   X X   X X   X X


C |----------------------------------------------------------------------------|
G |----------------------------------------------------------------------------|
D#|---------5-----5-----5-----5-----5-----5-----10-9 10^whole-10-9-------------|
A#|---------5-----5-----5-----5-----5-----5------------------------12----------|
F |-----0-0-3-3-3-3-0-0-2-2-2-2-0-0-0-0-0-0------------------------------------|
A#|-----0-0-3-3-3-2-0-0-2-0-0-0-0-0-0-0-0-0------------------------------------|
       X X   X X   X X   X X   X X   X X

C |----------------------------------------------------------------------------|
G |----------------------------------------------------------------------------|
D#|----------------------------------------------------------------------------|
A#|------8-----8-----7-----7-----5-----5-----5-----5---------------------------|
F |------8-8-8-8-0-0-7-7-7-7-0-0-5-5-5-5-5-5-5-5-5-5---------------------------|
A#|------8-8-8-8-0-0-7-7-7-7-0-0-5-5-5-5-5-5-5-5-5-5---------------------------|
          X X   X X   X X   X X   X X   X X   X X

C |----------------------------------------------------------------------------|
G |----------------------------------------------------------------------------|
D#|---------5-----5-----5-----5-----10-10-10-10--12-12-12-12-------------------|
A#|---------5-----5-----5-----5-----10-10-10-10--12-12-12-12-------------------|
F |-----0-0-3-3-3-3-0-0-2-2-2-2-0-0-8--8--8--8---10-10-10-10-------------------|
A#|-----0-0-3-3-3-2-0-0-2-0-0-0-0-0-8--8--8--8---10-10-10-10-------------------|
       X X   X X   X X   X X   X X   


[Chorus]

C |----------------------------------------------------------|
G |------3------5--------------------------------------------|
D#|------2------4-------10--------5--------------------------|
A#|------0------2-------10--------5--------------------------|
F |------0------2-------8---------3--------------------------|
A#|------0------2-------8---------3--------------------------|

C |----------------------------------------------------------|
G |----------------------------------------------------------|
D#|------11-11-9-11-12--11-11-9-11-12--s10-9-8-5-------------|
A#|----------------------------------------------------------|
F |----------------------------------------------------------|
A#|----------------------------------------------------------|

Verses, pre chorus and chorus repeat

[Pre Lead]

C |------------------------------------------------------------|
G |------------------------------------------------------------|
D#|------------------------------------------------------------|
A#|-------------------------------3-------------------11--7----|
F |---5-0-5-5-0--8-0-8-8-0--0-3-5----5-0-5-5-0--9-0-0-9---5----|
A#|------------------------------------------------------------|

C |------------------------------------------------------------|
G |------------------------------------------------------------|
D#|------------------------------------------------------------|
A#|-------------------------------3-------------7-5-7-8-7-5----|
F |---5-0-5-5-0--8-0-8-8-0--0-3-5----5-0-5-5-0--------------8--|
A#|------------------------------------------------------------|
Listen to song for palm muting pattern


   Rhythm for lead:
C |------------------------------------------------------------|
G |------------------------------------------------------------|
D#|------------------------------------------------------------|
A#|---0-3-3-3-3-3-3-3-3-3-3-3-3--0-3-3-3-3-3-3-3-0-------------|
F |---0-3-------3-3-3-3-3-3-3-3--0-3-------3-3-3-0-------------|
A#|---0-3-------3-3-3-3-3-3-3-3--0-3-------3-3-3-0-------------|(x2)
               X X X X X X X X            X X X 

C |------------------------------------------------------------|
G |------------------------------------------------------------|
D#|------------------------------------------------------------|
A#|---0-5-5-5-5-5-5-5-5-5-5-5-5--0-5-5-5-5-5-5-5-3-------------|
F |---0-5-------5-5-5-5-5-5-5-5--0-5-------5-5-5-3-------------|
A#|---0-5-------5-5-5-5-5-5-5-5--0-5-------5-5-5-3-------------|(x2)
               X X X X X X X X            X X X

C |------------------------------------------------------------|
G |------------------------------------------------------------|
D#|------------------------------------------------------------|
A#|-------------------------------3----------------------------|
F |---5-0-5-5-0--8-0-8-8-0--0-3-5----5-0-5-5-0--9-0-0-9---5----|
A#|------------------------------------------------------------|


C |----------------------------------------------------------|
G |----------------------------------------------------------|
D#|----------------------------------------------------------|
A#|----------------------------------------------------------|
F |--8-0-8-8-0--10-0-10-10-0-8-7--8-0-8-8-0-10-0-10-0-8-7----|
A#|----------------------------------------------------------|

   Guitar 2
C |----------------------------------------------------------|
G |----------------------------------------------------------|
D#|----------------------------------------------------------|
A#|--3-------------------------------------------------------|
F |--1-------------------------------------------------------|
A#|----------------------------------------------------------|

Repeat pre chorus, chorus. Outro is same as intro.

Sorry didn’t take the time to tab the lead. Maybe someone else can contribute to that :)
Follow the tuning stated at the top and not on the side of the bar measure.

************************************

| s Slide
| X Muted strings
| * Extra note

************************************
Suggest correction
Give kudos to tab author, rate the tab!
1 2 3 4 5
comments
print report bad tab
guest
You may want to rate the tab now too:
select rating
Wanna post a correction for this tab? Suggest correction