Oops, an error
Loading. Please wait.

Touch Of Red Tab

version 1
version 1

Whole song

8,979 views 1 this week
no commentswrite comment
1 2 3 4 5
accurate
x 6
add to favorites
launch autoscroll
font size
0
reset
how to read this tab
guitar tuner
Tab Pro tools
  • play this tab
  • loop segment
  • change instrument
  • show fretboard
  • metronome
×
Best way to learn
"Touch Of Red"
Autoscroll
slow
fast
+/-
esc
set tempo
stop
Contributor
Difficulty
intermediate
Tuning: A#


intro:

riff1a:

|---------------------------------|
|---------------------------------|
|-------5\4-----4\3-----------2---|
|-------5\4-----4\3-----------2---|
|---------------------------------|
|-0-0-0-----0-0-----0-0-0-0-0-----|
  .....     ...     .........

riff1b:

|-------------------------------|
|-------------------------------|
|-----5\4-----4\3-----------2---|
|-----5\4-----4\3-----------2---|
|-------------------------------|
|-0-0-----0-0-----0-0-0-0-0-----|
  ...     ...     .........

repeat riff1b

riff1c:

|-----------------------|
|-----------------------|
|-----5\4-----4\3-------|
|-----5\4-----4\3-------|
|-----------------------|
|-0-0-----0-0-----0-0---|
  ...     ...     ...

riff1a

riff1b x 2

riff1d:

|-------------------------------|
|-------------------------------|
|-----5\4-----4\3---------------|
|-----5\4-----4\3---------------|
|-------------------------------|
|-0-0-----0-0-----0-0-000-000---|
  ...     ...     ...........

verse 1:

riff2a:

|----------------------------------|
|----------------------------------|
|-------2-------2------------------|
|-------2-------2------------------|
|------------------------3-3-2-----|
|-0-0-0---0-0-0---0-0-0h2------3---|
  .....   .....   ...

riff2a x 3

riff2b:

|-------------------------------------------------------------------|
|-------------------------------------------------------------------|
|-------------------------------------------------------------------|
|-2-2---------------------------------------------------------------|
|-0-0-----------------------------------------------------3-3-2-----|
|------------------------------------------------------0h2------3---|
  ...

riff2c:

|-----------------------------------------------|
|-----------------------------------------------|
|-----------------------------------------------|
|-2-2--2-2--2-2--2-2--2-2--2-2--2-2-------------|
|-0-0--0-0--0-0--0-0--0-0--0-0--0-0----3-3-2----|
|-----------------------------------0h2------3--|
  .................................

riff2a x 2


riff3a:

|--------------------------------------------------------------|
|--------------------------------------------------------------|
|--------------------------------------------------------------|
|--------------------------------------------------------------|
|----------------------------------------------------3-3-2-----|
|-3-5-5-5-3-5-5-5-3-5-5-5-3-5-5-5-3-5-5-5-3-5-5-5-0h2------3---|


riff3b:

|-------------------------------------------------------------|
|-------------------------------------------------------------|
|-------------------------------------------------------------|
|---------------------------------------------------222-222---|
|---------------------------------------------------000-000---|
|-3-5-5-5-3-5-5-5-3-5-5-5-3-5-5-5-3-5-5-5-3-5-5-5-3-----------|
                                                    .......

chorus:

riff4a:

|--------------------------------------|
|--------------------------------------|
|--------------------------------------|
|-44444444-22222222----------77777777--|
|-22222222-00000000-55555555-55555555--|
|-------------------33333333-----------|

riff4b:

|--------------------------------------|
|--------------------------------------|
|--------------------------------------|
|-44444444-22222222----------33333333--|
|-22222222-00000000-55555555-11111111--|
|-------------------33333333-----------|

riff4a

riff4c:
                                               1. chorus only
|---------------------------------------------|---------------|
|---------------------------------------------|---------------|
|---------------------------------------------|---------------|
|-44444444-22222222---------------------------|---------------|
|-22222222-00000000-55555555-3333333333333333-|-2-*-let ring--|
|-------------------33333333-1111111111111111-|-0-*-----------|


verse 2:

riff3b

riff3c


chorus

interlude:

|----------------------------------------------------------|
|----------------------------------------------------------|
|----------------------------------------------------------|
|------------------------------------------7-7-7-7-7-7-7---|
|-4---4-4-----------------4---4-4---4------5-5-5-5-5-5-5---|
|-2-2-2-2-2-2-2-2-2-2-2-2-2-2-2-2-2-2-2-2------------------|
    .     ...............   .     .   ...

|----------------------------------------------------------|
|----------------------------------------------------------|
|----------------------------------------------------------|
|----------------------------------------------------------|
|-4---4-4-----------------4---4-4---4------7-7-7-7-7-7-7---|
|-2-2-2-2-2-2-2-2-2-2-2-2-2-2-2-2-2-2-2-2--5-5-5-5-5-5-5---|
    .     ...............   .     .   ...


solo:

  (guitar 1)                                                    1.   2.
|--------------------------------------------------------------|----|----------|
|-----------------------------------------------------8--7--8--|----|-10-8--7--|
|-------------------------------------------7~--7-h9-----------|-7~-|----------|
|-9~--7-\5-7~--5--10~--12p10-9~-7---9--7--5--------------------|----|----------|
|--------------------------------------------------------------|----|----------|
|--------------------------------------------------------------|----|----------|
|
| (guitar 2)                                                    1.   2.
|-------------------------------------------10~-10h12-15-14-15-|-10~|-17-15-14-|
|-12~-10\8-10~-8--13~--15p13-12~10--12-10-8--------------------|----|----------|
|--------------------------------------------------------------|----|----------|
|--------------------------------------------------------------|----|----------|
|--------------------------------------------------------------|----|----------|
|--------------------------------------------------------------|----|----------|
|
| (guitar 3)                                                    1.   2.
|--------------------------------------------------------------|----|----------|
|--------------------------------------------------------------|----|----------|
|--------------------------------------------------------------|----|----------|
|-4--------2------5-----------4--2---4------7---------12-------|-7--|-14-------|
|-2--------0---5--3-----------2--0---2------5---------10-------|-5--|-12-------|
|--------------3-----------------------------------------------|----|----------|


chorus

**The last riff of the final chorus is a bit different.     **
**Just keep playing the B5-chord before jumping into outro. **
**Listen to the song to get what I mean.                    **

outro:

riff1a

riff1b x 2

riff1d

end:

|----------------------|
|----------------------|
|----------------------|
|----------------------|
|-*drumfill*--222-222--|
|-------------000-000--|
              .......

END

Tabulature legend:

.  - palm mute           /  - slide up to
\  - slide down to       ~  - vibrato
h  - hammer on           b  - Bend
p  - pull off            Suffixes for bend
t  - tap                 f  - full bend    h - half bend
ph - pinched harmonic    q  - quarter bend t - tap bend
*  - see comment         ^  - Hold bend    r release bend
x  - Stuccatto           ~  - vibrato bend
,  - slight palm mute    () - ghost note, sustained note
"  - tremolo note        <> - Trill
comments
print report bad tab
I want to post or [tab]
guest
You may want to rate the tab now too:
select rating
Please do not post tabs as comments. Select "correction" instead!