Oops, an error
Loading. Please wait.

Touch Of Red Tab

version 2
version 2

Whole song

4,249 views 6 this week
3 commentsread comments
1 2 3 4 5
please rate
add to favorites
launch autoscroll
font size
0
reset
how to read this tab
guitar tuner
Autoscroll
slow
fast
+/-
esc
set tempo
stop
Help us to improve Ultimate-Guitar.com Take our survey!
×
Author
Difficulty
Tuning
intermediate
A# F A# D# G C
This is my tab of the OUTRO of the song Touch of Red by In Flames.

PART 1

A
---------------------------------------3----------------------------------|
---------1--------1-----------------3-----3-----------------3-----------3-|
---------------------------------5-----------5-----------5-----------5----|
------0-----3--------3--0-----5-----------------5-------------------------|
---------------------------3--------------------------5-----------5-------|
---0-----------0-----------------------------------5-----------5----------|

                           B
---------------------------------------------------------------3----------|
---------------------------------1--------1-----------------3-----3-------|
---------3--2--------3--2--------------------------------5-----------5----|
------------------------------0-----3--------3--0-----5-----------------5-|
------3-----------3--------------------------------3----------------------|
---3-----------3-----------0-----------0----------------------------------|


---------------------5-----0--------1-----------1-------------------------|
------------6-----------6--------------------1----------------------------|
---------5-----------------------3----------------------------------------|
------3-----------3-----------3-----------3-------------------------------|
---0-----------0-----------1-----------1----------------------------------|
--------------------------------------------------------------------------|


PART 2

--------------------------------------------------------------------------|
--------------------------------------------------------------------------|
---------2--3--------2--3-----------0-----------0--------0--------0-------|
------0-----------0--------------3-----------3----------------------------|
------------------------------5-----------5-----------3-----3--------3----|
---0-----------0-----------0-----------0-----------3-----------3--------3-|


---------------------------|
---------------------------|
---------3-----------------|   X 2
------3-----3--------3-----|
---1--------------3-----3--|
---------------3-----------|

PART 3

--------------------------------------------------------------------------|
--------------------------------------------------------------------------|
---------5--------5-------------------------------------------------------|
------5-----5--------5-----------5--------5--------------3--------3-------|
---3-----------3--------3-----5-----5--------5--------3-----3--------3----|
---------------------------5-----------5--------5--3-----------3--------3-|


--------------------------------------------------------------------------|
--------------------------------------------------------------------------|
---------------------------------5--------5-------------------------------|
---------1--------1-----------5-----5--------5-----------5--------5-------|
------1-----1--------1-----3-----------3--------3-----5-----5--------5----|
---1-----------1--------1--------------------------5-----------5--------5-|


--------------------------------------------------|
--------------------------------------------------|
---------------------------------5--------5-------|   + PART 1B
---------3--------3-----------5-----5--------5----|
------3-----3--------3-----3-----------3--------3-|
---3-----------3--------3-------------------------|

Haven't bothered figuring out the melody on top...
Suggest correction
What's this?
You can suggest a correction to this tab. Community and Mods will review your correction and vote to approve or reject it.
comments
We did not receive enough feedback on this tab! Please rate:
print report bad tab
1 2 3 4 5
3 comments total.
0 reply
Masterofpirates 317 wrote on September 11 2010, 07:59 pm

The bass note for the first riff in part 2 is a 5, not a 0.

0 reply
Masterofpirates 317 wrote on October 20 2010, 01:33 pm

Also, I figured out the melody and put it in a GP, should be up soon if anyone wants it.

0 reply
loki'scurse 70 wrote on March 4 2011, 10:33 am

nice work, combine this and the other tab and youd be spot on 5 *s

guest
You may want to rate the tab now too:
select rating
Please do not post tabs as comments. Select "correction" instead!