Oops, an error
Loading. Please wait.

Trigger Tab

version 1
version 1

Whole song

Interactive

37,209 views 39 this week
5 commentsread comments
1 2 3 4 5
x 14
add to favorites
launch autoscroll
font size
0
reset
how to read this tab
guitar tuner
×
Best way to learn
"Trigger"
Autoscroll
slow
fast
+/-
esc
set tempo
stop
E5                          C5        A5

(Gtr 1)
   PM--------------------|

e|---------------------------|---------------------------|
B|---------------------------|---------------------------|
G|---------------------------|---------------------------|
D|---------------------------|---5---5-5--2---2--2-------|
A|--2--2--2-2-2-2-2-2-2-2--2-|---3---3-3--0---0--0-------|
E|--0--0--0-0-0-0-0-0-0-0--0-|---------------------------|

(Gtr 2)
e|---------------------------|---------------------------|
B|---------------------------|------12---10--------------|
G|-12-12-11---9--------------|---------------12-11h12-11-|
D|------------------9-----10-|-(10)----------------------|
A|---------------------------|---------------------------|
E|---------------------------|---------------------------|

  E5                          D5        B5       B5
   PM--------------------|

e|---------------------------|-----------------------------|
B|---------------------------|-----------------------------|
G|---------------------------|-----------------------------|
D|---------------------------|---7---7-7--4--------4--4----|
A|--2--2--2-2-2-2-2-2-2-2--2-|---5---5-5--2--------2--2----|
E|--0--0--0-0-0-0-0-0-0-0--0-|-----------------------------|

e|---------------------------|-----------------------------|
B|------------------------10-|-(10)------------------------|
G|-12-12-11---9--------------|------12---11h12-11----------|
D|------------------9--------|--------------------14-12----|
A|---------------------------|-----------------------------|
E|---------------------------|-----------------------------|

  E5         G5               C5        A5  A5
   PM--------------------|

e|---------------------------|---------------------------|
B|---------------------------|---------------------------|
G|---------------------------|---------------------------|
D|---------------------------|---5---5-5--2---2--2-------|
A|--2--2--2-2-5-5-5-5-5-5--5-|---3---3-3--0---0--0-------|
E|--0--0--0-0-3-3-3-3-3-3--3-|---------------------------|

e|---------------------------|---------------------------|
B|---------------------------|------12---10--------------|
G|-12-12-11---9--------------|---------------12-11h12-11-|
D|------------------9-----10-|-(10)----------------------|
A|---------------------------|---------------------------|
E|---------------------------|---------------------------|

  C#5        Bb5              D5        Eb5      Eb5
   PM--------------------|

e|---------------------------|----------------------------|
B|---------------------------|----------------------------|
G|---------------------------|----------------------------|
D|--9--9--9-9-6-6-6-6-6-6--6-|----------------------------|
A|--7--7--7-7-4-4-4-4-4-4--4-|---5---5-5--6--------6--6---|
E|---------------------------|---7---7-7--7--------7--7---|

e|---------------------------|----------------------------|
B|------------------------10-|-(10)-----------------------|
G|-12-12-11---9--------------|------12---11h12-11---------|
D|------------------9--------|--------------------14-13---|
A|---------------------------|----------------------------|
E|---------------------------|----------------------------|

  E5                            C5        A5  A5
   PM----------------------|

e|-----------------------------|---------------------------|
B|-----------------------------|---------------------------|
G|-----------------------------|---------------------------|
D|-----------------------------|---5---5-5--2---2--2-------|
A|--2--2--2-2--2-2-2--2-2-2--2-|---3---3-3--0---0--0-------|
E|--0--0--0-0--0-0-0--0-0-0--0-|---------------------------|

(Gtr 2)
e|-----------------------------|---------------------------|
B|-12-12-10--------------------|---------------------------|
G|------------12---------------|------12---11--------------|
D|-------------------12-----10-|-(10)----------14-12-------|
A|-----------------------------|---------------------------|
E|-----------------------------|---------------------------|

(Gtr 3)
e|-----------------------------|---------------------------|
B|-----------------------------|------12---10--------------|
G|-12-12-11----9---------------|---------------12-11h12-11-|
D|--------------------9-----10-|-(10)----------------------|
A|-----------------------------|---------------------------|
E|-----------------------------|---------------------------|

  E5                             D5        B5       B5
   PM----------------------|

e|------------------------------|----------------------------|
B|------------------------------|----------------------------|
G|------------------------------|----------------------------|
D|------------------------------|---7---7-7--4--------4--4---|
A|--2--2--2-2--2-2-2--2-2-2---2-|---5---5-5--2--------2--2---|
E|--0--0--0-0--0-0-0--0-0-0---0-|----------------------------|

e|------------------------------|----------------------------|
B|-12-12-10-----------------/13-|-(13)-12---10h12-10---------|
G|------------12----------------|--------------------12-11---|
D|-------------------12---------|----------------------------|
A|------------------------------|----------------------------|
E|------------------------------|----------------------------|

e|------------------------------|----------------------------|
B|---------------------------10-|-(10)-----------------------|
G|-12-12-11----9----------------|------12---11h12-11---------|
D|--------------------9---------|--------------------14-12---|
A|------------------------------|----------------------------|
E|------------------------------|----------------------------|

  E5         G5                 C5        A5  A5
   PM----------------------|

e|-----------------------------|---------------------------|
B|-----------------------------|---------------------------|
G|-----------------------------|---------------------------|
D|-----------------------------|---5---5-5--2---2--2-------|
A|--2--2--2-2--5-5-5--5-5-5--5-|---3---3-3--0---0--0-------|
E|--0--0--0-0--3-3-3--3-3-3--3-|---------------------------|

e|-----------------------------|---------------------------|
B|-12-12-10--------------------|---------------------------|
G|------------12---------------|------12---11--------------|
D|-------------------12-----10-|-(10)----------14-12-------|
A|-----------------------------|---------------------------|
E|-----------------------------|---------------------------|

e|-----------------------------|---------------------------|
B|-----------------------------|------12---10--------------|
G|-12-12-11----9---------------|---------------12-11h12-11-|
D|--------------------9-----10-|-(10)----------------------|
A|-----------------------------|---------------------------|
E|-----------------------------|---------------------------|

  C#5        Bb5                 D5        Eb5      Eb5
   PM----------------------|

e|------------------------------|----------------------------|
B|------------------------------|----------------------------|
G|------------------------------|----------------------------|
D|--9--9--9-9--6-6-6--6-6-6---6-|----------------------------|
A|--7--7--7-7--4-4-4--4-4-4---4-|---5---5-5--6--------6--6---|
E|------------------------------|---7---7-7--7--------7--7---|

 |                                                       ~~
e|------------------------------|----------------------------|
B|-12-12-10-----------------/13-|-(13)-12---10h12-10---------|
G|------------12----------------|--------------------12-11---|
D|-------------------12---------|----------------------------|
A|------------------------------|----------------------------|
E|------------------------------|----------------------------|

 |                                                       ~~
e|------------------------------|----------------------------|
B|------------------------------|----------------------------|
G|-12-12-11----9------------/14-|-(14)-12---11h12-11---------|
D|--------------------9---------|--------------------14-13---|
A|------------------------------|----------------------------|
E|------------------------------|----------------------------|

[Verse]
   $
e|---------|---------|---------|-----|
B|---------|---------|---------|-----|
G|---------|---------|---------|-----|
D|---------|---------|---------|-----|
A|---------|---------|---------|-----|
E|---------|---------|---------|-----|

    E5     E5                   E5         E5
(Gtr 1)
    PM---------|                PM---------|

e|------------------|---------|-----------------|-----------------|
B|o-----------------|---------|-----------------|-----------------|
G|------------------|---------|-----------------|-----------------|
D|------------------|---------|-----------------|------------4h5--|
A|o-2-2-2--2-2-2----|---------|-2-2-2--2-2-2----|--7-5---5h7------|
E|--0-0-0--0-0-0----|---------|-0-0-0--0-0-0----|------7----------|

(Gtr 2)
|   PM---------|                PM---------|

e|------------------|---------|-----------------|-----------------|
B|o-----------------|---------|-----------------|-----------------|
G|------------------|---------|-----------------|------------2h4--|
D|------------------|---------|-----------------|--5-4---4h5------|
A|o-2-2-2--2-2-2----|---------|-2-2-2--2-2-2----|------5----------|
E|--0-0-0--0-0-0----|---------|-0-0-0--0-0-0----|-----------------|

                                                                To Coda
  E5     E5     E5/B E5/B         E5     E5     C5/G C5/G
  PM-----------|                  PM---------|

e|------------------|------------|------------------|----------------------|
B|------------------|------------|------------------|---------------------o|
G|---------------4--|-(4)--------|------------------|----------------------|
D|---------------2--|-(2)--------|---------------5--|-(5)--(5)--(5)-5-4----|
A|-2-2-2--2-2-2--2--|-(2)--------|-2-2-2--2-2-2--3--|-(3)--(3)--(3)-----5-o|
E|-0-0-0--0-0-0-----|------------|-0-0-0--0-0-0--3--|-(3)--(3)--(3)--------|


| PM---------|                    PM---------|

e|------------------|------------|------------------|----------------------|
B|------------------|------------|------------------|---------------------o|
G|---------------4--|-(4)--------|------------------|----------------------|
D|---------------2--|-(2)--------|---------------5--|-(5)--(5)--(5)--------|
A|-2-2-2--2-2-2--2--|-(2)--------|-2-2-2--2-2-2--3--|-(3)--(3)--(3)-7-5---o|
E|-0-0-0--0-0-0-----|------------|-0-0-0--0-0-0--3--|-(3)--(3)--(3)-----7--|

[Pre-Chorus]
      C5        G/B       C5 G5A5B5E5       E5                           C5 B5
                                          PM------------------|

e|----------------|-----------------|-------------------|----------------------|
B|o---------------|-----------------|-------------------|----------------------|
G|----------------|-----------------|-------------------|-------11-11s12-12s11-|
D|--5-5-5-4--5--5-|-5-5-5----2-4----|-------------------|----------------------|
A|o-3-3-3-3--3--3-|-3-3-3-5--0-2-2--|-(2)---------------|--------9--9s10-10s=9-|
E|----------------|-------3------0--|-(0)-0-0-0-0-0-0-0-|-0-0-0----------------|

|                                         PM------------------|

e|----------------|-----------------|-------------------|----------------------|
B|o---------------|-----------------|-------------------|----------------------|
G|----------------|-----------------|-------------------|--------7--7s=9--9s=7-|
D|--5-5-5-4--5--5-|-5-5-5----2-4----|-------------------|----------------------|
A|o-3-3-3-3--3--3-|-3-3-3-5--0-2-2--|-(2)---------------|--------5--5s=7--7s=5-|
E|----------------|-------3------0--|-(0)-0-0-0-0-0-0-0-|-0-0-0----------------|

   1.
         C5      G/B
                                              PM|         PM|       PM|
e|----------------|----------------|--------------------|----------------------|
B|----------------|----------------|--------------------|---------------------o|
G|----------------|----------------|----12-12-----11-11-|-----12-12-----11-11--|
D|-5-5-5-4--5--5--|-5-5-5------2-4-|--------------------|----------------------|
A|-3-3-3-3--3--3--|-3-3-3-5--5-0-2-|-2--10-10------9--9-|-----10-10------9--9-o|
E|----------------|-------3--3-----|-0--------0-0-------|-0-0-------0-0--------|

 |                                            PM|         PM|       PM|
e|----------------|----------------|--------------------|----------------------|
B|----------------|----------------|--------------------|---------------------o|
G|----------------|----------------|-----9--9------7--7-|------9--9------7--7--|
D|-5-5-5-4--5--5--|-5-5-5------2-4-|--------------------|----------------------|
A|-3-3-3-3--3--3--|-3-3-3-5--5-0-2-|-2---7--7------5--5-|------7--7------5--5-o|
E|----------------|-------3--3-----|-0--------0-0-------|-0-0-------0-0--------|

  2.
                    D.S. al Coda
  C5    G/B       B5
(Gtr 1, 2)
                  PM------------|

e|---------------|-----------------|
B|---------------|-----------------|
G|---------------|-----------------|
D|-5-5-5-4--5--5-|-4-4-4-4-4-4-4-4-|
A|-3-3-3-3--3--3-|-2-2-2-2-2-2-2-2-|
E|---------------|-----------------|

[Pre-Chorus 2]
    &
(Gtr 1)
                                         PM------------------|

e|----------------|----------------|-------------------|-----------------------|
B|o---------------|----------------|-------------------|-----------------------|
G|----------------|----------------|-------------------|-------11-11s12-12s10--|
D|--5-5-5-4--5--5-|-5-5-5----2-4---|-------------------|-----------------------|
A|o-3-3-3-3--3--3-|-3-3-3-5--0-2-2-|-(2)---------------|--------9--9s10-10s=9--|
E|----------------|-------3------0-|-(0)-0-0-0-0-0-0-0-|-0-0-0-----------------|

(Gtr 2)
|                                        PM------------------|

e|----------------|----------------|-------------------|-----------------------|
B|o---------------|----------------|-------------------|-----------------------|
G|----------------|----------------|-------------------|--------7--7s=9--9s=7--|
D|--5-5-5-4--5--5-|-5-5-5----2-4---|-------------------|-----------------------|
A|o-3-3-3-3--3--3-|-3-3-3-5--0-2-2-|-(2)---------------|--------5--5s=7--7s=5--|
E|----------------|-------3------0-|-(0)-0-0-0-0-0-0-0-|-0-0-0-----------------|

   1.
                                             PM|       PM|       PM|
e|---------------|----------------|------------------|----------------------|
B|---------------|----------------|------------------|---------------------o|
G|---------------|----------------|----11-11-----9-9-|-----12-12-----11-11--|
D|-5-5-5-4--5--5-|-5-5-5------2-4-|------------------|----------------------|
A|-3-3-3-3--3--3-|-3-3-3-5--5-0-2-|-2---9--9-----7-7-|-----10-10------9--9-o|
E|---------------|-------3--3-----|-0--------0-0-----|-0-0-------0-0--------|

 |                                           PM|       PM|       PM|
e|---------------|----------------|------------------|----------------------|
B|---------------|----------------|------------------|---------------------o|
G|---------------|----------------|-----7--7-----5-5-|------9--9------7--7--|
D|-5-5-5-4--5--5-|-5-5-5------2-4-|------------------|----------------------|
A|-3-3-3-3--3--3-|-3-3-3-5--5-0-2-|-2---5--5-----3-3-|------7--7------5--5-o|
E|---------------|-------3--3-----|-0--------0-0-----|-0-0-------0-0--------|

   2.
   C5    G/B       C5    G/B       G5/C         G5/C
(Gtr 1, 2)
e|---------------|---------------|------------|------------|
B|---------------|---------------|------------|------------|
G|---------------|---------------|-7---7---7--|-(7)--------|
D|-5-5-5-4--5--5-|-5-5-5-4--5--5-|-5---5---5--|-(5)--------|
A|-3-3-3-3--3--3-|-3-3-3-3--3--3-|-3---5---3--|-(3)--------|
E|---------------|---------------|------------|------------|

[Chorus]
     E5         A5  A5  G/B C5         E5           G5    G5      D5
(Gtr 1)
e|---------------|------------------|------------------|------------------|
B|o--------------|------------------|------------------|------------------|
G|---------------|------------------|------------------|------------------|
D|-------------2-|-(2)-2-2-5--5-5---|---------5--5-5---|---------7--7-7---|
A|o-2--2-2--2--0-|-(0)-0-0-3--3-3-2-|-(2)-2-2-3--3-3-5-|-(5)-5-5-5--5-5---|
E|--0--0-0--0----|----------------0-|-(0)-0-0--------3-|-(3)-3-3----------|

(Gtr 2)
e|---------------|------------------|------------------|------------------|
B|o--------------|------------------|------------------|------------------|
G|-------------5-|-(5)-5-5----------|----------------7-|-(7)-7-7-5--5-5---|
D|--5--5-5--5--7-|-(7)-7-7-5--5-5-5-|-(5)-5-5-5--5-5-5-|-(5)-5-5-7--7-7---|
A|o-7--7-7--7----|---------3--3-3-7-|-(7)-7-7-3--3-3---|------------------|
E|---------------|------------------|------------------|------------------|

   E5   A5        A5  G/B C5         E5               A5 A5      B5
e|--------------|------------------|-------------------|------------------|
B|--------------|------------------|-------------------|-----------------o|
G|--------------|------------------|-------------------|------------------|
D|------------2-|-(2)-2-2-5--5-5---|---------5--5-5-2--|-(2)-2-2-4--4-4---|
A|-2--2-2--2--0-|-(0)-0-0-3--3-3-2-|-(2)-2-2-3--3-3-0--|-(0)-0-0-2--2-2--o|
E|-0--0-0--0----|----------------0-|-(0)-0-0-----------|------------------|

e|--------------|------------------|-------------------|------------------|
B|--------------|------------------|-------------------|-----------------o|
G|------------5-|-(5)-5-5----------|-------------------|------------------|
D|-5--5-5--5--7-|-(7)-7-7-5--5-5-5-|-(5)-5-5-5--5-5-2--|-(2)-2-2-4--4-4---|
A|-7--7-7--7----|---------3--3-3-7-|-(7)-7-7-3--3-3-0--|-(0)-0-0-2--2-2--o|
E|--------------|------------------|-------------------|------------------|

[Verse]
  E5       E5                 E5       E5
(Gtr 1)
  PM---------|      PM-------------------|

e|-----------------|---------|-----------------|----------------|
B|-----------------|---------|-----------------|----------------|
G|-----------------|---------|-----------------|----------------|
D|-----------------|---------|-----------------|------------4h5-|
A|-2-2-2--2-2-2----|---------|-2-2-2--2-2-2----|--7-5---5h7-----|
E|-0-0-0--0-0-0----|---------|-0-0-0--0-0-0----|------7---------|

(Gtr 2)
| PM---------|      PM-------------------|

e|-----------------|---------|-----------------|----------------|
B|-----------------|---------|-----------------|----------------|
G|-----------------|---------|-----------------|------------2h4-|
D|-----------------|---------|-----------------|--5-4---4h5-----|
A|-2-2-2--2-2-2----|---------|-2-2-2--2-2-2----|------5---------|
E|-0-0-0--0-0-0----|---------|-0-0-0--0-0-0----|----------------|


  E5         E5 E5/B E5/B         E5         E5 C5/G C5/G
  PM---------|                    PM---------|

e|------------------|------------|------------------|---------------------|
B|------------------|------------|------------------|---------------------|
G|---------------4--|-(4)--------|------------------|---------------------|
D|---------------2--|-(2)--------|---------------5--|-(5)--(5)--(5)-5-4---|
A|-2-2-2--2-2-2--2--|-(2)--------|-2-2-2--2-2-2--3--|-(3)--(3)--(3)-----5-|
E|-0-0-0--0-0-0-----|------------|-0-0-0--0-0-0--3--|-(3)--(3)--(3)-------|

| PM---------|                    PM---------|

e|------------------|------------|------------------|---------------------|
B|------------------|------------|------------------|---------------------|
G|---------------4--|-(4)--------|------------------|---------------------|
D|---------------2--|-(2)--------|---------------5--|-(5)--(5)--(5)-------|
A|-2-2-2--2-2-2--2--|-(2)--------|-2-2-2--2-2-2--3--|-(3)--(3)--(3)-7-5---|
E|-0-0-0--0-0-0-----|------------|-0-0-0--0-0-0--3--|-(3)--(3)--(3)-----7-|

[Interlude]
    PM------------------------------------------------
e|-------------------------|-------------------------|
B|-------------------------|-------------------------|
G|-------------------------|-------------------------|
D|-11-11-11-11-11-11-11-11-|----11-11-12-12-12----11-|
A|-------------------------|-14----------------14----|
E|-------------------------|-------------------------|

 |  PM------------------------------------------------
e|-------------------------|-------------------------|
B|-------------------------|-------------------------|
G|-------------------------|-------------------------|
D|-------------------------|-------------------------|
A|-------------------------|--2--2--2--5--5--5--5--5-|
E|--2--2--2--2--2--2--2--2-|-------------------------|

e|-------------------------|-------------------------|
B|-------------------------|-------------------------|
G|-------------------------|-------------------------|
D|-------------------------|-------------------------|
A|-12-12-12-12-12-12-12-12-|-11-11-11-12-12-12-14-14-|
E|-------------------------|-------------------------|

e|-------------------------|-------------------------|
B|-------------------------|-------------------------|
G|-------------------------|-------------------------|
D|-------------------------|-------------------------|
A|--------------5--5--5--5-|--------------7--7--7--7-|
E|--2--2--2--2-------------|--5--5--5--5-------------|

    PM------------------------------------------------
e|-------------------------|-------------------------|
B|-------------------------|-------------------------|
G|-------------------------|-------------------------|
D|-11-11-11-11-11-11-11-11-|----11-11-12-12-12----11-|
A|-------------------------|-14----------------14----|
E|-------------------------|-------------------------|

 |  PM------------------------------------------------
e|-------------------------|-------------------------|
B|-------------------------|-------------------------|
G|-------------------------|-------------------------|
D|-------------------------|-------------------------|
A|-------------------------|--2--2--2--5--5--5--5--5-|
E|--2--2--2--2--2--2--2--2-|-------------------------|

e|-------------------------|-------------------------|
B|-------------------------|-------------------------|
G|-------------------------|-------------------------|
D|-------------------------|-------------------------|
A|-12-12-12-12-12-12-12-12-|-11-11-11-12-12-12-14-14-|
E|-------------------------|-------------------------|

e|-------------------------|-------------------------|
B|-------------------------|-------------------------|
G|-------------------------|-------------------------|
D|-------------------------|-------------------------|
A|--------------5--5--5--5-|--------------4--4--4--4-|
E|--2--2--2--2-------------|--5--5--5--5-------------|

[Chorus]
     EA5                G/B            E5                 G5      D5
(Gtr 1)
e|---------------|------------------|------------------|------------------|
B|o--------------|------------------|------------------|------------------|
G|---------------|------------------|------------------|------------------|
D|-------------2-|-(2)-2-2-5--5-5---|---------5--5-5---|---------7--7-7---|
A|o-2--2-2--2--0-|-(0)-0-0-3--3-3-2-|-(2)-2-2-3--3-3-5-|-(5)-5-5-5--5-5---|
E|--0--0-0--0----|----------------0-|-(0)-0-0--------3-|-(3)-3-3----------|

(Gtr 2)
e|---------------|------------------|------------------|------------------|
B|o--------------|------------------|------------------|------------------|
G|-------------5-|-(5)-5-5----------|----------------7-|-(7)-7-7-5--5-5---|
D|--5--5-5--5--7-|-(7)-7-7-5--5-5-5-|-(5)-5-5-5--5-5-5-|-(5)-5-5-7--7-7---|
A|o-7--7-7--7----|---------3--3-3-7-|-(7)-7-7-3--3-3---|------------------|
E|---------------|------------------|------------------|------------------|

   E5      A5     A5  G/B C5         E5               A5 A5      B5
e|--------------|------------------|-------------------|------------------|
B|--------------|------------------|-------------------|-----------------o|
G|--------------|------------------|-------------------|------------------|
D|------------2-|-(2)-2-2-5--5-5---|---------5--5-5-2--|-(2)-2-2-4--4-4---|
A|-2--2-2--2--0-|-(0)-0-0-3--3-3-2-|-(2)-2-2-3--3-3-0--|-(0)-0-0-2--2-2--o|
E|-0--0-0--0----|----------------0-|-(0)-0-0-----------|------------------|

e|--------------|------------------|-------------------|------------------|
B|--------------|------------------|-------------------|-----------------o|
G|------------5-|-(5)-5-5----------|-------------------|------------------|
D|-5--5-5--5--7-|-(7)-7-7-5--5-5-5-|-(5)-5-5-5--5-5-2--|-(2)-2-2-4--4-4---|
A|-7--7-7--7----|---------3--3-3-7-|-(7)-7-7-3--3-3-0--|-(0)-0-0-2--2-2--o|
E|--------------|------------------|-------------------|------------------|

   C5           A5       B5
e|------------|---------------------|
B|------------|---------------------|
G|------------|-12-12-12-14--14-14--|
D|-5---5---5--|--x--x--x--x---x--x--|
A|-3---3---3--|-10-10-10-12--12-12--|
E|------------|---------------------|

e|------------|---------------------|
B|------------|---------------------|
G|------------|---------------------|
D|-5---5---5--|--2--2--2--4---4--4--|
A|-3---3---3--|--0--0--0--2---2--2--|
E|------------|---------------------|

[Guitar Solo]
   E5       G5        D5   D5   E5    A5  E5
(Gtr 1)
       PM|   ~~  PM|   ~~~~~~~~~ PM|   ~~
e|-----------------------|-------------------------------|
B|----------12-----------|-------------------------------|
G|--------------------14-|-(14)-------12--11h12p11-------|
D|-14-14-14-----14-14----|------14-14--------------14-12-|
A|-----------------------|-------------------------------|
E|-----------------------|-------------------------------|

(Gtr 2)
e|-----------------------|-------------------------------|
B|-----------------------|-------------------------------|
G|-----------------------|-------------------------------|
D|---------------------7-|--(7)--------2-----------------|
A|--2--2--2--5---2--2--5-|--(5)--2--2--0---2--------2--2-|
E|--0--0--0--3---0--0----|-------0--0------0--------0--0-|

  E5       G5        C5   C5   E5    D5
   PM---|   ~~  PM|   ~~~~~~~~~       ~~

e|-----------------------|---------------------------|
B|----------12--------15-|-(15)-13-12----------------|
G|-----------------------|------------14--12-11------|
D|-14-14-14-----14-14----|----------------------14---|
A|-----------------------|---------------------------|
E|-----------------------|---------------------------|

e|-----------------------|---------------------------|
B|-----------------------|---------------------------|
G|-----------------------|---------------------------|
D|---------------------5-|--(5)--------7---7--7------|
A|--2--2--2--5---2--2--3-|--(3)--2--2--5---5--5------|
E|--0--0--0--3---0--0----|-------0--0----------------|

  E5       G5        D5   D5   E5    A5  E5
(Gtr 1)
   PM---|   ~~  PM|   ~~~~~~~~~ PM|   ~~

e|-----------------------|-------------------------------|
B|-----------------------|------------12--10h12p10-------|
G|----------12--------11-|-(11)--------------------12-11-|
D|-14-14-14-----14-14----|------14-14--------------------|
A|-----------------------|-------------------------------|
E|-----------------------|-------------------------------|

(Gtr 2)
|  PM---|   ~~  PM|   ~~~~~~~~~ PM|   ~~

e|-----------------------|-------------------------------|
B|----------12--------10-|-(10)--------------------------|
G|-----------------------|------------12--11h12p11-------|
D|-14-14-14-----14-14----|------14-14--------------14-12-|
A|-----------------------|-------------------------------|
E|-----------------------|-------------------------------|

(Gtr 3)
e|-----------------------|-------------------------------|
B|-----------------------|-------------------------------|
G|-----------------------|-------------------------------|
D|---------------------7-|--(7)--------2-----------------|
A|--2--2--2--5---2--2--5-|--(5)--2--2--0---2--------2--2-|
E|--0--0--0--3---0--0----|-------0--0------0--------0--0-|


  E5       G5        C5   C5   E5    D5
   PM---|   ~~  PM|   ~~~~~~~~~       ~~~~~~~

e|-----------------------|------------14-(14)--------|
B|--------------------17-|-(17)-15-17----------------|
G|----------12-----------|---------------------------|
D|-14-14-14-----14-14----|---------------------------|
A|-----------------------|---------------------------|
E|-----------------------|---------------------------|

|  PM---|   ~~  PM|   ~~~~~~~~~       ~~~~~~~

e|--------------------15-|-(15)-14-15-17-(17)--------|
B|----------12-----------|---------------------------|
G|-----------------------|---------------------------|
D|-14-14-14-----14-14----|---------------------------|
A|-----------------------|---------------------------|
E|-----------------------|---------------------------|

e|-----------------------|---------------------------|
B|-----------------------|---------------------------|
G|-----------------------|---------------------------|
D|---------------------5-|--(5)--------7------7-7----|
A|--2--2--2--5---2--2--3-|--(3)--2--2--5------5-5----|
E|--0--0--0--3---0--0----|-------0--0----------------|

[Bridge]
   E5
(Gtr 1)
    PM---------------------------------------
e|-----------------|------10----8-----------|
B|-12-10--8--------|------12---10---12-10---|
G|-12-11--9--7---9-|--(9)-----------12-11---|
D|-----------9--10-|-(10)-------------------|
A|-----------------|------------------------|
E|-----------------|------------------------|

(Gtr 2)
                       PM--------------------
e|-----------------|------------------------|
B|-----------------|------------------------|
G|-----------------|---------5-------2------|
D|--9--------------|-------5------2-----2---|
A|--7--------------|---3--------3---------3-|
E|-----------------|------------------------|

(Gtr 3)
 |                     PM--------------------
e|-----------------|------------------------|
B|-----------------|------------------------|
G|-----------------|---------0-------2------|
D|--9--------------|-------2------2-----2---|
A|--7--------------|---3--------3---------3-|
E|-----------------|------------------------|

e|------------------8-|--(8)----------------------|
B|-12-10---8-------10-|-(10)-12---10--------------|
G|-12-11---9---7------|------12---11---12-11-(11)-|
D|-------------9------|----------------14-12-(12)-|
A|--------------------|---------------------------|
E|--------------------|---------------------------|

e|--------------------|---------------------------|
B|--------------------|---------------------------|
G|-------9-----9------|-----------------4---------|
D|-----9-----9---9----|---------7----------7------|
A|--7------7--------7-|---5---5----5-5---------5--|
E|--------------------|---------------------------|

e|--------------------|---------------------------|
B|--------------------|---------------------------|
G|-------4-----4------|---------0-------0---------|
D|-----5-----5---5----|-------4------4------------|
A|--7------7--------7-|---5--------2-------2---2--|
E|--------------------|---------------------------|

    PM------------------------------------------
e|--------------------|------10----8-----------|
B|-12-10---8----------|------12---10---12-10---|
G|-12-11---9---9----9-|--(9)-----------12-11---|
D|-------------9---10-|-(10)-------------------|
A|--------------------|------------------------|
E|--------------------|------------------------|

(Gtr 2)
    PM------------------------------------------
e|--------------------|------------------------|
B|--------------------|------------------------|
G|-------5-----7------|---------4-------2------|
D|-----5-----5--------|-------5------5---------|
A|--3------3-----3--3-|---3--------3-------3-3-|
E|--------------------|------------------------|

   PM------------------------------------------
e|--------------------|------------------------|
B|--------------------|------------------------|
G|-------4-----4------|---------0-------2------|
D|-----5-----5---5----|-------2------2-----2---|
A|--7------7--------7-|---3--------3---------3-|
E|--------------------|------------------------|

e|------------------8-|--(8)-----------------------|
B|-12-10---8-------10-|-(10)-12---10h12-10---------|
G|-12-11---9---9------|------12---11h12-11-12-11---|
D|-------------9------|--------------------14-13---|
A|--------------------|----------------------------|
E|--------------------|----------------------------|

e|--------------------|----------------------------|
B|--------------------|----------------------------|
G|-------4-----4------|----------------------------|
D|-----5-----5---5----|---------5-----------5------|
A|--3------3--------6-|-------6----------6-----6-7-|
E|--------------------|---7--------7---------------|

e|--------------------|----------------------------|
B|--------------------|----------------------------|
G|-------4-----4------|---------0-----------0------|
D|-----5-----5---5----|-------4----------4---------|
A|--7------7--------7-|---5--------2-----------2-2-|
E|--------------------|----------------------------|

  E5                      C5         A5
(Gtr 1, 2)
  PM------------------|

e|-----------------------|---------------|
B|-----------------------|---------------|
G|-----------------------|---------------|
D|-----------------------|-5-5-5-2--2-2--|
A|-2-2-2-2-2-2-2-2-2-2-2-|-3-3-3-0--0-0--|
E|-0-0-0-0-0-0-0-0-0-0-0-|---------------|

  E5                      D5    B5
  PM------------------|

e|-----------------------|---------------|
B|-----------------------|---------------|
G|-----------------------|---------------|
D|-----------------------|-7-7-7-4--4-4--|
A|-2-2-2-2-2-2-2-2-2-2-2-|-5-5-5-2--2-2--|
E|-0-0-0-0-0-0-0-0-0-0-0-|---------------|

  E5      G5              C5    A5
  PM------------------|

e|-----------------------|---------------|
B|-----------------------|---------------|
G|-----------------------|---------------|
D|-----------------------|-5-5-5-2--2-2--|
A|-2-2-2-2-5-5-5-5-5-5-5-|-3-3-3-0--0-0--|
E|-0-0-0-0-3-3-3-3-3-3-3-|---------------|

  C#5     Bb5             D5    Eb5
  PM------------------|

e|-----------------------|---------------|
B|-----------------------|---------------|
G|-----------------------|---------------|
D|-9-9-9-9-6-6-6-6-6-6-6-|---------------|
A|-7-7-7-7-4-4-4-4-4-4-4-|-5-5-5-6--6-6--|
E|-----------------------|-7-7-7-7--7-7--|

    PM------------------------------------------------
e|-------------------------|-------------------------|
B|-------------------------|-------------------------|
G|-------------------------|-------------------------|
D|-11-11-11-11-11-11-11-11-|----11-11-12-12-12----11-|
A|-------------------------|-14----------------14----|
E|-------------------------|-------------------------|

(Gtr 2)
 |  PM------------------------------------------------
e|-------------------------|-------------------------|
B|-------------------------|-------------------------|
G|-------------------------|-------------------------|
D|-------------------------|-------------------------|
A|-------------------------|--2--2--2--5--5--5--5--5-|
E|--2--2--2--2--2--2--2--2-|-------------------------|

e|-------------------------|-------------------------|
B|-------------------------|-------------------------|
G|-------------------------|-------------------------|
D|-------------------------|-------------------------|
A|-12-12-12-12-12-12-12-12-|-11-11-11-12-12-12-14-14-|
E|-------------------------|-------------------------|

e|-------------------------|-------------------------|
B|-------------------------|-------------------------|
G|-------------------------|-------------------------|
D|-------------------------|-------------------------|
A|--------------5--5--5--5-|--------------7--7--7--7-|
E|--2--2--2--2-------------|--5--5--5--5-------------|

   PM------------------------------------------------
e|-------------------------|-------------------------|
B|-------------------------|-------------------------|
G|-------------------------|-------------------------|
D|-11-11-11-11-11-11-11-11-|----11-11-12-12-12----11-|
A|-------------------------|-14----------------14----|
E|-------------------------|-------------------------|

 |  PM------------------------------------------------
e|-------------------------|-------------------------|
B|-------------------------|-------------------------|
G|-------------------------|-------------------------|
D|-------------------------|-------------------------|
A|-------------------------|--2--2--2--5--5--5--5--5-|
E|--2--2--2--2--2--2--2--2-|-------------------------|

e|-------------------------|-------------------------|
B|-------------------------|-------------------------|
G|-------------------------|-------------------------|
D|-------------------------|-------------------------|
A|-12-12-12-12-12-12-12-12-|-11-11-11-12-12-12-14-14-|
E|-------------------------|-------------------------|

e|-------------------------|-------------------------|
B|-------------------------|-------------------------|
G|-------------------------|-------------------------|
D|-------------------------|-------------------------|
A|--------------5--5--5--5-|--------------4--4--4--4-|
E|--2--2--2--2-------------|--5--5--5--5-------------|

[Out-Chorus]
     E5 A5          A5  G/C5           E5  G5             G5  D5
(Gtr 1)
e|---------------|------------------|------------------|------------------|
B|o--------------|------------------|------------------|------------------|
G|---------------|------------------|------------------|------------------|
D|-------------2-|-(2)-2-2-5--5-5---|---------5--5-5---|---------7--7-7---|
A|o-2--2-2--2--0-|-(0)-0-0-3--3-3-2-|-(2)-2-2-3--3-3-5-|-(5)-5-5-5--5-5---|
E|--0--0-0--0----|----------------0-|-(0)-0-0--------3-|-(3)-3-3----------|

(Gtr 2)
e|---------------|------------------|------------------|------------------|
B|o--------------|------------------|------------------|------------------|
G|-------------5-|-(5)-5-5----------|----------------7-|-(7)-7-7-5--5-5---|
D|--5--5-5--5--7-|-(7)-7-7-5--5-5-5-|-(5)-5-5-5--5-5-5-|-(5)-5-5-7--7-7---|
A|o-7--7-7--7----|---------3--3-3-7-|-(7)-7-7-3--3-3---|------------------|
E|---------------|------------------|------------------|------------------|

   E5           A5 A5  G/B C5         E5               A5 A5      B5
                                                                             7x
e|---------------|------------------|-------------------|--------------------|
B|---------------|------------------|-------------------|-------------------o|
G|---------------|------------------|-------------------|--------------------|
D|------------2--|-(2)-2-2-5--5-5---|---------5--5-5-2--|-(2)-2-2-4--4-4-----|
A|-2--2-2--2--0--|-(0)-0-0-3--3-3-2-|-(2)-2-2-3--3-3-0--|-(0)-0-0-2--2-2----o|
E|-0--0-0--0-----|----------------0-|-(0)-0-0-----------|--------------------|

                                                                            7x
e|---------------|------------------|-------------------|--------------------|
B|---------------|------------------|-------------------|-------------------o|
G|------------5--|-(5)-5-5----------|-------------------|--------------------|
D|-5--5-5--5--7--|-(7)-7-7-5--5-5-5-|-(5)-5-5-5--5-5-2--|-(2)-2-2-4--4-4-----|
A|-7--7-7--7-----|---------3--3-3-7-|-(7)-7-7-3--3-3-0--|-(0)-0-0-2--2-2----o|
E|---------------|------------------|-------------------|--------------------|

   EA5            A5  G/B C5         E5                 G5      D5
e|--------------|------------------|------------------|-----------------|
B|--------------|------------------|------------------|-----------------|
G|--------------|------------------|------------------|-----------------|
D|------------2-|-(2)-2-2-5--5-5---|---------5--5-5---|---------7--7-7--|
A|-2--2-2--2--0-|-(0)-0-0-3--3-3-2-|-(2)-2-2-3--3-3-5-|-(5)-5-5-5--5-5--|
E|-0--0-0--0----|----------------0-|-(0)-0-0--------3-|-(3)-3-3---------|

e|--------------|------------------|------------------|-----------------|
B|--------------|------------------|------------------|-----------------|
G|------------5-|-(5)-5-5----------|----------------7-|-(7)-7-7-5--5-5--|
D|-5--5-5--5--7-|-(7)-7-7-5--5-5-5-|-(5)-5-5-5--5-5-5-|-(5)-5-5-7--7-7--|
A|-7--7-7--7----|---------3--3-3-7-|-(7)-7-7-3--3-3---|-----------------|
E|--------------|------------------|------------------|-----------------|

   E5         A5  A5  G/B C5         E5                 A5      B5
e|--------------|------------------|------------------|-----------------*|
B|--------------|------------------|------------------|-----------------*|
G|--------------|------------------|------------------|-----------------*|
D|------------2-|-(2)-2-2-5--5-5---|---------5--5-5-2-|-(2)-2-2-4--4-4--*|
A|-2--2-2--2--0-|-(0)-0-0-3--3-3-2-|-(2)-2-2-3--3-3-0-|-(0)-0-0-2--2-2--*|
E|-0--0-0--0----|----------------0-|-(0)-0-0----------|-----------------*|

e|--------------|------------------|------------------|-----------------*|
B|--------------|------------------|------------------|-----------------*|
G|------------5-|-(5)-5-5----------|------------------|-----------------*|
D|-5--5-5--5--7-|-(7)-7-7-5--5-5-5-|-(5)-5-5-5--5-5-2-|-(2)-2-2-4--4-4--*|
A|-7--7-7--7----|---------3--3-3-7-|-(7)-7-7-3--3-3-0-|-(0)-0-0-2--2-2--*|
E|--------------|------------------|------------------|-----------------*|



************************************

| h    Hammer-on
| (n)  Ghost note
| /    Slide up
| ~    Vibrato
| PM   Palm mute
| x    Dead note
| p    Pull-off
| *    Natural harmonic

************************************
Suggest correction
comments
print report bad tab
5 comments total. Showing first comments.
0 reply
spencer Cr 507 Mar 28, 2007 03:17 PM

whats the tuning.
is it standard

+2 reply
spencer Cr 507 Apr 22, 2007 09:13 AM

anyone who cares the tunning is 2 steps down:

C F A# D# G C

0 reply
aznmetalhead93 10 Jan 03, 2008 03:44 PM

nice!

guest
You may want to rate the tab now too:
select rating
Wanna post a correction for this tab? Suggest correction