Oops, an error
Loading. Please wait.

Where The Dead Ships Dwell Tab

version 1
version 1

Whole song

Interactive

11,575 views 24 this week
no commentswrite comment
1 2 3 4 5
x 6
add to favorites
launch autoscroll
font size
0
reset
how to read this tab
guitar tuner
Autoscroll
slow
fast
+/-
esc
set tempo
stop
Help us to improve Ultimate-Guitar.com Take our survey!
×
Author
Difficulty
Tuning
novice
A# F A# D# G C
---------------------------------------------------------------------------
                  WHERE THE DEAD SHIPS DWELL - In Flames
---------------------------------------------------------------------------
Tabbed By: Tobse
Tuning: Drop Bb [ Bb F Bb Eb G C ]

Please rate and comment!


C |--------------------------------|------|-------------------------------|
G |o------------------------------o|x4----|o------------------------------|
Eb|--------------------------------|------|-------------------------------|
Bb|--0----------0------------------|---0--|--0----------0-----------------|
F |o-0----------0-----------------o|x4-0--|o-0----------0-8-7-5----5-7-8--|
Bb|--0--0-0-0-0-0h3-0h5h7-8p7-5h7--|---0--|--0--0-0-0-0-0-------10--------|
         . . . .                                  . . . . 

C |----------------------------|-----|----------------------------------|
G |---------------------------o|-----|o--------------------------------o|x4
Eb|----------------------------|-----|----------------------------------|
Bb|-0----------0---------------|-0---|--0-----------0-------------------|
F |-0----------0-8-7-5-7--7-8-o|-0---|o-0-----------0------------------o|x4
Bb|-0--0-0-0-0-0---------------|-0---|--0---0-0-0-0-0h3-0h5h7-8p7-5h7---|
       . . . .                              . . . .


C |--------------------------------------------------------|--------------|
G |o------------------------------------------------------o|--------------|
Eb|--------------------------------------------------------|--------------|
Bb|--7----7--7-7--5----5--5-5--3----3--3-3--10---10-10-10--|--------------|
F |o-7----7--7-7--5----5--5-5--3----3--3-3--10---10-10-10-o|--------------|
Bb|--7----7--7-7--5----5--5-5--3----3--3-3--10---10-10-10--|--------------|


C |--------------------------------|------|-------------------------------|
G |o------------------------------o|x4----|o------------------------------|
Eb|--------------------------------|------|-------------------------------|
Bb|--0----------0------------------|---0--|--0----------0-----------------|
F |o-0----------0-----------------o|x4-0--|o-0----------0-8-7-5----5-7-8--|
Bb|--0--0-0-0-0-0h3-0h5h7-8p7-5h7--|---0--|--0--0-0-0-0-0-------10--------|
        . . . .                                 . . . . 

C |----------------------------|-|----------------------------------------|
G |---------------------------o|-|o---------------------------------------|
Eb|----------------------------|-|----------------------------------------|
Bb|-o----------0---------------|-|--7----7--7-7--5----5--5-5--3----3--3-3-|
F |-0----------0-8-7-5-7--7-8-o|-|o-7----7--7-7--5----5--5-5--3----3--3-3-|
Bb|-0--0-0-0-0-0---------------|-|--7----7--7-7--5----5--5-5--3----3--3-3-|
       . . . .

C |--------------|              |---------------------------------------|
G |-------------o| I will tab   |o-------------------------------------o|x4
Eb|--------------| the solo     |---------------------------------------|
Bb|-2----2--2-2--| another      |--0-----------0------------------------|
F |-2----2--2-2-o| time, sorry. |o-0-----------0-----------------------o|x4
BB|-2----2--2-2--|              |--0---0-0-0-0-0h3-0h5h7-8p7-5h7--------|
                                       . . . .

C |---------------------------------------------------------------------|
G |o-------------------------------------------------------------------o|x4
Eb|---------------------------------------------------------------------|
Bb|--0----------0-----------------0----------0--------------------------|
F |o-0----------0-8-7-5----5-7-8--0----------0-8-7-5-7--7-8------------o|x4
Bb|--0--0-0-0-0-0-------10--------0--0-0-0-0-0--------------------------|

C |------------------------------------------------------|----------------|
G |o----------------------------------------------------o|x4--------------|
Eb|------------------------------------------------------|----------------|
Bb|--7----7--7-7--5----5--5-5--3----3--3-3--2----2--2-2--|----------------|
F |o-7----7--7-7--5----5--5-5--3----3--3-3--2----2--2-2-o|x4--------------|
Bb|--7----7--7-7--5----5--5-5--3----3--3-3--2----2--2-2--|----------------|

C |--------------------------------|--------------------------------------|
G |o------------------------------o|x4------------------------------------|
Eb|--------------------------------|--------------------------------------|
Bb|--0----------0------------------|--------------------------------------|
F |o-0----------0-----------------o|x4------------------------------------|
Bb|--0--0-0-0-0-0h3-0h5h7-8p7-5h7--|--------------------------------------|
Suggest correction
comments
print report bad tab
guest
You may want to rate the tab now too:
select rating
Wanna post a correction for this tab? Suggest correction