Oops, an error
Loading. Please wait.

Zombie Inc Bass Tab

version 2
version 2

Whole song

685 views 1 this week
no commentswrite comment
1 2 3 4 5
please rate
add to favorites
launch autoscroll
font size
0
reset
guitar tuner
Autoscroll
slow
fast
+/-
esc
set tempo
stop
Help us to improve Ultimate-Guitar.com Take our survey!
×
Contributor
Tuning
tonedeafidiot 39,150
C F A# D# G C
#----------------------------------PLEASE NOTE---------------------------------#
#This file is the author's own work and represents their interpretation of the #
#song. You may only use this file for private study, scholarship, or research. #
#------------------------------------------------------------------------------#

ZOMBIE INC. (Bassline)
As recorded by In Flames
(From the 1999 Album COLONY)

Transcribed by Carlos Acosta (Geeko)
	

Words by Anders Fridén Music by Jesper Strömblad, Björn Gelotte , Peter Iwers, Daniel Svensson
Arranged by In Flames

Gtr I (C F Bb Eb) - 'Peter'
Gtr II (C F Bb Eb G C) - 'Synth'

 Intro
  Fast Metal Q=170
 2/2
  Gtr I
  H    +Q.   E   +W           H    +Q.   E   +W
|--------------|------------|--------------|--------|
|--------------|------------|--------------|--------|
|-0----(0)-----|------------|-3----(3)-----|--------|
|------------0-|-(0)--------|------------3-|-(3)----|


  H    +Q.   E   +W           H    +Q.   E   +W
|--------------|------------|--------------|--------|
|--------------|------------|--------------|--------|
|-0----(0)-----|------------|-3----(3)---5-|-(5)----|
|------------0-|-(0)--------|--------------|--------|


  H    +Q.   E   +E  E E E E E E E
|--------------|-------------------|
|--------------|-------------------|
|-2----(2)-----|-------------------|
|------------2-|-(2)-2-2-2-2-2-2-2-|


         |-3-|
  Q  E E S S S +E  E E   +E  E E E +Q   +Q
|----------------------|-----------------------|
|----------------------|-----------------------|
|-5--5-7-5h7p5-(5)-7---|-----5-7---------------|
|--------------------5-|-(5)-----5-(5)--(5)----|


  H    +Q.   E   +E  E E E E E E E   H    E E E E   +E  +E  E a E +E  E E E
|--------------|-------------------|--------------|-------------------------||
|--------------|-------------------|--------------|-------------------------||
|-2----(2)-----|-------------------|-5--------5-7-|-(7)-(7)-7-7h9-(9)-5-7-5-||
|------------2-|-(2)-2-2-2-2-2-2-2-|------3s5-----|-------------------------||


   Verse
   4/4
    E E E E E E E E   E E E E E E Q    E E E E E E E E   E E E E E E Q
||------------------|----------------|-----------------|-----------------|
||o-----------------|----------------|-----------------|-----------------|
||o-----------------|----------------|-----------------|-----------------|
||--5-5---5-5-5---5-|-5-5---5-5-5-0--|-1-1---1-1-1---1-|-1-1---1-1-1-3---|


  1.
  E E E E E E E E   E E E E E E Q    E E E E E E E E   E E E E E E E E
|-----------------|----------------|-----------------|------------------||
|-----------------|----------------|-----------------|-----------------o||
|-----------------|----------------|-----------------|-3-3-2-3-5-3-2---o||
|-5-5---5-5-5---5-|-5-5---5-5-5-0--|-1-1---1-1-1---1-|---------------3--||


  2.
  E E E E E E E E   E E E E E E Q    E E E E E E E E   E E E E E E E E
|-----------------|----------------|-----------------|-----------------|
|-----------------|----------------|-----------------|---------------3-|
|-----------------|----------------|-----------------|-3-3-2-3-5-3-2---|
|-5-5---5-5-5---5-|-5-5---5-5-5-0--|-1-1---1-1-1---1-|-----------------|


 Chorus
 2/2
  +E  E Q  E E E E   +E  E Q  E E a E E
|----------------2-|-(2)-2-2--2-2-2s3-0-|
|-(3)-3-3--3-3-3---|--------------------|
|------------------|--------------------|
|------------------|--------------------|


  +E  E Q  E E E E   +E  E E E E E E E
|-(0)-0-0--0-0-0-5-|-(5)-5-5-5-2-2-2----|
|------------------|-----------------3--|
|------------------|--------------------|
|------------------|--------------------|


  +E  E Q  +Q   E E   +E  E Q  +Q   E E   +E  E Q  +Q   E E   W
|-----------------2-|-(2)-2-2--(2)--2-0-|-(0)-0-0--(0)------|------||
|-(3)-3-3--(3)--3---|-------------------|---------------3-3-|------||
|-------------------|-------------------|-------------------|------||
|-------------------|-------------------|-------------------|------||


   Verse
    $
   4/4
     E  E  E  E  E  E  E  E    E  E  E  E  E  E  Q
||--------------------------|-------------------------|
||o-------------------------|-------------------------|
||o-------------------------|-------------------------|
||---5--5-----5--5--5-----5-|--5--5-----5--5--5--0----|
|
|   Gtr II
|    e  e  e  e  e  e  e  e    e  e  e  e  e  e  e  e
||--12-------12-12-------12-|-12-------12-12-------12-|
||o----12-13-------12-13----|----12-13-------12-13----|
||--------------------------|-------------------------|
||--------------------------|-------------------------|
||o-------------------------|-------------------------|
||--------------------------|-------------------------|


   E  E  E  E  E  E  E  E    E  E  E  E  E  E  Q
|-------------------------|--------------------------|
|-------------------------|--------------------------|
|-------------------------|--------------------------|
|--1--1-----1--1--1-----1-|--1--1-----1--1--1--3-----|
|
|  e  e  e  e  e  e  e  e    e  e  e  e  e  e  e  e
|-15-------15-15-------15-|-15-------15-15-------15--|
|----12-13-------12-13----|----12-13-------12-13-----|
|-------------------------|--------------------------|
|-------------------------|--------------------------|
|-------------------------|--------------------------|
|-------------------------|--------------------------|


  1.
   E  E  E  E  E  E  E  E    E  E  E  E  E  E  Q
|-------------------------|-------------------------|
|-------------------------|-------------------------|
|-------------------------|-------------------------|
|--5--5-----5--5--5-----5-|--5--5-----5--5--5--0----|
|
|  e  e  e  e  e  e  e  e    e  e  e  e  e  e  e  e
|-12-------12-12-------12-|-12-------12-12-------12-|
|----12-13-------12-13----|----12-13-------12-13----|
|-------------------------|-------------------------|
|-------------------------|-------------------------|
|-------------------------|-------------------------|
|-------------------------|-------------------------|


   E  E  E  E  E  E  E  E    E  E  E  E  E  E  E  E
|-------------------------|--------------------------||
|-------------------------|-------------------------o||
|-------------------------|--3--3--2--3--5--3--2----o||
|--1--1-----1--1--1-----1-|-----------------------3--||
|
|  e  e  e  e  e  e  e  e    e  e  e  e  e  e  e  e
|-15-------15-15-------15-|-15-------15-15-------15--||
|----12-13-------12-13----|----12-13-------12-13----o||
|-------------------------|--------------------------||
|-------------------------|--------------------------||
|-------------------------|-------------------------o||
|-------------------------|--------------------------||


  2.
   E  E  E  E  E  E  E  E    E  E  E  E  E  E  Q
|-------------------------|-------------------------|
|-------------------------|-------------------------|
|-------------------------|-------------------------|
|--5--5-----5--5--5-----5-|--5--5-----5--5--5--0----|
|
|  e  e  e  e  e  e  e  e    e  e  e  e  e  e  e  e
|-12-------12-12-------12-|-12-------12-12-------12-|
|----12-13-------12-13----|----12-13-------12-13----|
|-------------------------|-------------------------|
|-------------------------|-------------------------|
|-------------------------|-------------------------|
|-------------------------|-------------------------|


   E  E  E  E  E  E  E  E    E  E  E  E  e +Q       E
|-------------------------|---------------------------||
|-------------------------|-------------------------3-||
|-------------------------|--3--3--2--3--5-(5)\-------||
|--1--1-----1--1--1-----1-|---------------------------||
|
|  e  e  e  e  e  e  e  e    e  e  e  e  e  e    e  e
|-15-------15-15-------15-|-15-------15-15---------15-||
|----12-13-------12-13----|----12-13-------12---13----||
|-------------------------|---------------------------||
|-------------------------|---------------------------||
|-------------------------|---------------------------||
|-------------------------|---------------------------||


   Chorus
   2/2
    +E  E Q  E E E E   +E  E Q  E E a E E
||-----------------2-|-(2)-2-2--2-2-2s3-0-|
||o-(3)-2-3--3-3-3---|--------------------|
||o------------------|--------------------|
||-------------------|--------------------|


  +E  E Q  E E E E   +E  E E E E E E E
|-(0)-0-0--0-0-0-5-|-(5)-5-5-5-2-2-2---|
|------------------|-----------------3-|
|------------------|-------------------|
|------------------|-------------------|


  1.
  E E Q  +Q   E E   +E  E Q  +Q   E E   +E  E Q  E E E E   +E  E E E E E E E
|---------------2-|-(2)-2-2--(2)--2-0-|-(0)-0-0--0-0-0---|--------------------||
|-3-3-3--(3)--3---|-------------------|----------------2-|-(2)-3---3-------3-o||
|-----------------|-------------------|------------------|-------5---3-5-2---o||
|-----------------|-------------------|------------------|--------------------||


  2.
  +E  E Q  +Q   E E   +E  E Q  +Q   E E
|-----------------2-|-(2)-2-2--(2)--2-0-|
|-(3)-3-3--(3)--3---|-------------------|
|-------------------|-------------------|
|-------------------|-------------------|


                                         To Coda
  E E Q  E E E E   +E  E E E E E E E   +E  E Q  H
|-0-0-0--0-0-0---|-------------------|---------------|
|--------------2-|-(2)-3---3-------2-|-(2)-----------|
|----------------|-------5---3-5-2---|---------------|
|----------------|-------------------|---------------|


 Bridge
  H    Q  E E   +E  E E E E E E E   Q  E E E E E a E   +E  E E E E E E E
|-------------|-------------------|------------------|-------------------|
|-------------|-------------------|------------------|-------------------|
|-----------2-|-(2)-2-2-2-2-2-2-2-|----2-3-5-5-3-3h5-|-(5)-5-5-5-5-5-5-5-|
|-0----0--0---|-------------------|-3----------------|-------------------|


  H    Q  E E   +E  E E E E E E E   Q  E E E +E  E E   +E  E E E E E E E
|-------------|-------------------|------------------|-------------------|
|-------------|-------------------|------------------|-------------------|
|-----------2-|-(2)-2-2-2-2-2-2-2-|----2-3-5-(5)-----|-------------------|
|-0----0--0---|-------------------|-3------------3-5-|-(5)-5-5-5-5-5-5-5-|


  H    Q  E E   +E  E E E E E E E   Q  E E E E E a E   +E  E E E E E E E
|-------------|-------------------|------------------|-------------------|
|-------------|-------------------|------------------|-------------------|
|-----------2-|-(2)-2-2-2-2-2-2-2-|----2-3-5-5-3-3h5-|-(5)-5-5-5-7-5-7-5-|
|-0----0--0---|-------------------|-3----------------|-------------------|


  H    Q  E E   +E  E E E E E E E
|-------------|-------------------|
|-------------|-------------------|
|-----------2-|-(2)-2-2-2-2-2-2-2-|
|-0----0--0---|-------------------|


  Q  E E E +E  E E   +E  S S E S S S S E E E
|------------------|--------------------------|
|------------------|--------------------------|
|----2-3-5-(5)-----|--------------------------|
|-3------------3-5-|-(5)-5-5-5-5-5-5-5-5-5-5--|


                                         Slightly Slower Q=168
  Q  E E E E E E   E S S E S S S S E E E    W          +W
|----------------|-----------------------|-----------|--------|
|----------------|-----------------------|-----------|--------|
|----------------|-----------------------|-/7--------|-(7)----|
|-3--3-3-3-3-3-5-|-5-5-5-5-5-5-5-5-5-5-5-|-----------|--------|


   >
  +W           W          W          W
|------------|----------|----------|------|
|------------|----------|----------|------|
|-(7)--------|----------|----------|------|
|------------|----------|----------|------|


                          Guitar Solo
  W          H    Q  Q     H    +Q   E E   +H     +Q   +E  E
|----------|------------||---------------|--------------------|
|----------|------------||-------------9-|-(9)----(9)--(9)-9s=|
|----------|---------7--||-7----(7)--7---|--------------------|
|----------|------------||---------------|--------------------|


   H     +Q    +E   E    +H      +Q    +E  E
|---------------------|----------------------|
|-10----(10)--(10)-12-|-(12)----(12)--(12)---|
|---------------------|--------------------7-|
|---------------------|----------------------|


    H    +Q   E E   +H     +Q   +E  E
||----------------|--------------------|
||o-------------9-|-(9)----(9)--(9)-9s=|
||o-7----(7)--7---|--------------------|
||----------------|--------------------|


   H     +Q    +E   E    +H      +Q    +E  E
|---------------------|-----------------------||
|-10----(10)--(10)-12-|-(12)----(12)--(12)---o||
|---------------------|--------------------7-o||
|---------------------|-----------------------||


  H    +Q   E E   +H     +Q   +E  E
|---------------|--------------------|
|-------------9-|-(9)----(9)--(9)-9s=|
|-7----(7)--7---|--------------------|
|---------------|--------------------|


   E  E  E  E  +E   E  E  E   E E E E E E E E
|---------------------------|-----------------|
|-10-10-10-10-(10)-10-10-10-|-0-0-0-0---------|
|---------------------------|---------2-2-2-2-|
|---------------------------|-----------------|


  H    E E +E   E   +E  +E  E +E  E +E  E E
|-----------------|-------------------------|
|------7h9-(9)----|-------------------------|
|--------------\2-|-(2)-(2)-2-(2)-2-(2)-2-2-|
|-0---------------|-------------------------|


  E E E E E E +E  E   +E  E E E E E E +E
|---------0h2-(2)---|---------------------|
|-----2-------------|-----5-7---7h9-7-(7)-|
|-3-2---2---------5-|-(5)-----------------|
|-------------------|---------------------|


  Q  E E +Q   +E  E   +E  +E  E +E  E E E E
|-------------------|-----------------------|
|----7h9-(9)--(9)---|-----------------------|
|-----------------2-|-(2)-(2)-2-(2)-2-2-2-2-|
|-0-----------------|-----------------------|


  E +E  E E E E E E   +E  +E  E +E  E E E E
|-------------------|-----------------------|
|-------2h4-5-------|-----------------------|
|-3-(3)-------3---5-|-(5)-(5)-5-(5)-5-5-5-5-|
|-------------------|-----------------------|


  E E E E E E E E   E E E E E E +E  E
|-----------------|-------------------|
|-----------------|-------------------|
|-7-7-7-7-7-7-7-7-|-2-2-2-2-2-2-(2)-3-|
|-----------------|-------------------|


  +E  E E E E E E E   E E E E E E +E  E
|-------------------|-------------------|
|-------------------|-------------------|
|-(3)-3-3-3-3-3-3-3-|-5-5-5-5-5-5-(5)-7-|
|-------------------|-------------------|


  +E  E E E E E E E   E E E E E E +E  E
|-------------------|-------------------|
|-------------------|-------------------|
|-(7)-7-7-7-7-7-7-7-|-2-2-2-2-2-2-(2)-3-|
|-------------------|-------------------|


                                        Guitar Break
  E E E E E E E E   E E E E E E +E  E    +Q   H    Q      W     3x
|-----------------|-------------------||--------------||--------||
|-----------------|-------------------||--------------||o------o||
|-3-3-3-3-3-3-3-3-|-5-5-5-5-5-5-(5)-7-||-(7)----------||o------o||
|-----------------|-------------------||--------------||--------||


                                     D.S. al Coda
  W          W          W          E E E E E E E E
|----------|----------|----------|-----------------||
|----------|----------|----------|-----------------||
|----------|----------|----------|-5-5-5-5-2-2-2-2-||
|----------|----------|----------|-----------------||


   Outro
    &
    H    Q  E E   +E  E E E E E E E   Q  E E E +E  E a E   +E  E E E E E E E
||--------------|-------------------|--------------------|-------------------|
||o-------------|-------------------|--------------------|-------------------|
||o-----------2-|-(2)-2-2-2-2-2-2-2-|----2-3-5-(5)-3-3h5-|-(5)-5-7-5-7-5-----|
||--0----0--0---|-------------------|-3------------------|---------------7-0-|


  H    Q  E E   +E  E E E E E E E   Q  E E E E E E   +E  E E E E E Q
|-------------|-------------------|----------------|------------------|
|-------------|-------------------|----------5-----|-----5-7---7h9-7--|
|-----------2-|-(2)-2-2-2-2-2-2-2-|----2-3-5---5-5-|-(5)--------------|
|-0----0--0---|-------------------|-3--------------|------------------|


  H    Q  E E   +E  E E E E E E E   Q  E E E E E E   +E  E E E E E E E
|-------------|-------------------|----------------|-------------------|
|-------------|-------------------|----------5-----|-------------------|
|-----------2-|-(2)-2-2-2-2-2-2-2-|----2-3-5-------|-------------------|
|-0----0--0---|-------------------|-3----------3-5-|-(5)-5-5-5-5-5-5-5-|


  H    Q  E E   +E  E E E E E E E   Q  E E E E E E   +E  E E E E E E E
|-------------|-------------------|----------------|--------------------||
|-------------|-------------------|----------5-----|-------7-------7-9-o||
|-----------2-|-(2)-2-2-2-2-2-2-2-|----2-3-5---3-5-|-(5)-5-----5-5-----o||
|-0----0--0---|-------------------|-3--------------|--------------------||


  H    Q  E E   +E  E E E E E E E   Q  E E E +E  E a E   +E  E E E E E E E
|-------------|-------------------|--------------------|-------------------|
|-------------|-------------------|--------------------|-------------------|
|-----------2-|-(2)-2-2-2-2-2-2-2-|----2-3-5-(5)-3-3h5-|-(5)-5-7-5-7-5-----|
|-0----0--0---|-------------------|-3------------------|---------------7-0-|


  H    Q  E E   +E  E E E E E E E   Q  E E E E E E   +E  E E E E E Q
|-------------|-------------------|----------------|------------------*|
|-------------|-------------------|----------5-----|-----5-7---7h9-7--*|
|-----------2-|-(2)-2-2-2-2-2-2-2-|----2-3-5---5-5-|-(5)--------------*|
|-0----0--0---|-------------------|-3--------------|------------------*|



Duration Legend
---------------
W - whole; H - half; Q - quarter; E - 8th; S - 16th; T - 32nd; X - 64th; a - acciaccatura
+ - note tied to previous; . - note dotted; .. - note double dotted
Uncapitalized letters represent notes that are staccato (1/2 duration)
Irregular groupings are notated above the duration line
Duration letters will always appear directly above the note/fret number it represents the
duration for.  Duration letters with no fret number below them represent rests.  Multi-
bar rests are notated in the form Wxn, where n is the number of bars to rest for.  Low
melody durations appear below the staff

Tablature Legend
----------------
 h   - hammer-on
 p   - pull-off
 b   - bend
 pb  - pre-bend
 r   - bend release (if no number after the r, then release immediately)
 /\  - slide into or out of (from/to "nowhere")
 s   - legato slide
 S   - shift slide
 - natural harmonic
[n]  - artificial harmonic
n(n) - tapped harmonic
 ~   - vibrato
 tr  - trill
 T   - tap
 TP  - trem. picking
 PM  - palm muting
\n/  - tremolo bar dip; n = amount to dip
 \n  - tremolo bar down
 n/  - tremolo bar up
/n\  - tremolo bar inverted dip
 =   - hold bend; also acts as connecting device for hammers/pulls
 <> - volume swell (louder/softer)
 x   - on rhythm slash represents muted slash
 o   - on rhythm slash represents single note slash

Misc Legend
-----------
 |  - bar
||  - double bar
||o - repeat start
o|| - repeat end
*|  - double bar (ending)
 :  - bar (freetime)
 $  - Segno
 &  - Coda
Tempo markers -  = BPM(8/16=s8/s16), where s8 = swing 8ths, s16 = swing 16ths

Suggest correction What's this?
You can suggest a correction to this tab. Community and Mods will review your correction and vote to approve or reject it.
comments
We did not receive enough feedback on this tab! Please rate:
print report bad tab
1 2 3 4 5
I want to post or [tab]
guest
You may want to rate the tab now too:
select rating
Please do not post tabs as comments. Select "correction" instead!