Oops, an error
Loading. Please wait.

Zombie Inc Tab

version 2
version 2

Whole song

8,720 views 9 this week
4 commentsread comments
1 2 3 4 5
2 more votes to show rating
add to favorites
launch autoscroll
font size
0
reset
how to read this tab
guitar tuner
Autoscroll
slow
fast
+/-
esc
set tempo
stop
Help us to improve Ultimate-Guitar.com Take our survey!
×
Author
Difficulty
intermediate
drop D flat (drop d half a step down)

h-hammer        ~-vibrato
p-pull off      pm-palm mute
/-slide up
\-slide down

Intro

Guitar 1
-|------------------------------------|
-|------------------------------------|
-|-------------------5---5------------|
-|-6---6-5h6p6---------6---6-8-6-5----|
-|---8-----------6-8---------------8--|
-|-------------8----------------------|
Guitar 2
-|------------------------------------|
-|------------------------------------|
-|---------------------3--------------|
-|-6-----------2-------3----4---------|
-|-6-----------0-------1----2---------|
-|-4-----------0------------2---------|
Guitar 1
-|-------------------------------------|
-|-------------------------------------|
-|-------------------5-----------------|
-|-6---6-5h6p5---------6-5-----8-6-5---|
-|---8-----------6-8-------8-6-------5-|
-|-------------8-----------------------|
Guitar 2
-|-------------------------------------|
-|-------------------------------------|
-|---------------------3-------4-------|
-|-6-----------2-------3-------4-------|
-|-6-----------0-------1-------2-------|
-|-4-----------0-----------------------|
Guitar 1
-|------------------------------------------|
-|------------------------------------------|
-|-----------------------7---7--------------|
-|-8----8-7h8p7------------8---8-10-8-7-----|
-|---10-------------8-10----------------10--|
-|--------------10--------------------------|
Guitar 2
-|------------------------------------------|
-|------------------------------------------|
-|-------------------------4----------------|
-|-8------------3----------4-------------4--|
-|-8------------3----------2-------------4--|
-|-6------------1------------------------2--|
Guitar 1
-|---------------------------------------------|
-|---------------------------------------------|
-|-----------------------7---------------------|
-|-8----8-7h8p7------------8-7-------10-8-7----|
-|---10-------------8-10--------10-8---------7-|
-|--------------10-----------------------------|
Guitar 2
-|---------------------------------------------|
-|---------------------------------------------|
-|-------------------------4----------------5--|
-|-8------------3----------4----------------5--|
-|-8------------3----------2----------------3--|
-|-6------------1------------------------------|

Verse
Guitar 1
-|------------------|
-|------------------|
-|------------5-/8~-|
-|---10-----6-------|
-|-8----6h8---------|
-|------------------|
Guitar 2
-|-------|
-|-------|
-|-------|
-|-6--6--|
-|-8--6--|
-|-8--4--|
   pm pm

Post-chorus
Guitar 1
-|--------------------------------------------------|
-|--------------------------------------------------|
-|---------------5----------------------------------|
-|-------------6---8-6------------10-11-8-10-7-8----|
-|-8-6-----6-8---------10-8----------------------10-|
-|-----8-8------------------10-10-------------------|
Guitar 2
-|----------------------------------|
-|----------------------------------|
-|--------------------------------4-|
-|-3------6-----------4-----------4-|
-|-3------6-----------4-----------2-|
-|-1------4-----------2-------------|
Post-chorus 2
Guitar 1
-|--------------------------------------------------|
-|--------------------------------------------------|
-|---------------5----------------------------------|
-|-------------6---8-6------------10-11-8-10-7-8----|
-|-8-6-----6-8---------10-8----------------------10-|
-|-----8-8------------------10-10-------------------|
Guitar 2
-|----------------------------------|
-|----------------------------------|
-|--------------------------------4-|
-|-3------6-----------4-----------4-|
-|-3------6-----------4-----------2-|
-|-1------4-----------2-------------|

Chorus
Guitar 1
-|------------------------------------|
-|------------------------------------|
-|-------------2----------------------|
-|-----------3---5-3------------------|
-|-5-3-5-3-5----------6-8-6-/8-6------|
-|-------------------------------10-8-|
Guitar 2
-|----------------------------|
-|----------------------------|
-|--------------------------3-|
-|-2----5------------3------3-|
-|-2----5------------3------1-|
-|-0----3------------1--------|
Guitar 1
-|-------------------------------------------|
-|-------------------------------------------|
-|-------------2-----------------------------|
-|-----------3---5-3-------------------------|
-|-5-3-5-3-5----------8-6--------10-8--------|
-|-------------------------10-8--------12-10-|
Guitar 2
-|---------------------------------|
-|---------------------------------|
-|-------------------------------3-|
-|-2----5------------3-----------3-|
-|-2----5------------3-----------1-|
-|-0----3------------1-------------|
Guitar 1
-|------------------------------------------|
-|------------6-10-8h10p8----8--------------|
-|-8-7-8--7-8--------------8---8-/10-8-7----|
-|---------------------------------------10-|
-|------------------------------------------|
-|------------------------------------------|
Guitar 2
-|---------------------------------|
-|---------------------------------|
-|-------------------------------3-|
-|-2----5------------3-----------3-|
-|-2----5------------3-----------1-|
-|-0----3------------1-------------|
Guitar 1
-|------------------------------------------------|
-|------------6-10-8h10p8-------------------------|
-|-8-7-8--7-8--------------8-7-5----10-8-7--------|
-|--------------------------------8---------10----|
-|------------------------------------------------|
-|------------------------------------------------|
Guitar 2
-|---------------------------------|
-|---------------------------------|
-|-------------------------------3-|
-|-2----5------------3-----------3-|
-|-2----5------------3-----------1-|
-|-0----3------------1-------------|

Solo
Guitar 2 ( plays 3 times be4 guitar one and keeps playing until distortion)
-|---------|-----------------|----------------------------------|
-|-4p3-3-4-|-----------------|--4p3---4--4----4-----5-3h4p3-1---|
-|-0---0-0-|(played 4 times -|--0-----0--1----1p0---2---------3-|
-|---------| only once then)-|----------------------------------|
-|---------|-----------------|------0-------------1-------------|
-|---------|-----------------|-3------------4-------------------|
Guitar 1 ( acoustic )
-|---------------13-------------------------------------------------------|
-|---13--15--16------16-15-13---------------------------------------------|
-|-12--12--12--12--12--------15-13-12-10h12-10h12p10----------------------|
-|---------------------------------------------------13-13h15-12h13p12-10-|
-|------------------------------------------------------------------------|
-|------------------------------------------------------------------------|

-|--------------------------------------------------------
-|--------------------------------------------------------
-|--------------------------------7h8p7-----------/10-8-8-
-|-13-13/15-15\13-13\12-12\10-10\8-----8-/12-10-10--------
-|--------------------------------------------------------
-|--------------------------------------------------------

-|-----------------------------------------------------------------------------
-|-----------------------------------------------------------------------------
-|---12--10--8--7--7h8p7----7-8------12--10--8--7--12h13p12--------12-13-------
-|-10--10--10-10-10-----8-10---10~-10--10--10-10-10--------15-13-15-----10~----
-|-----------------------------------------------------------------------------
-|-----------------------------------------------------------------------------

-|------------------------------------------------------------------------
-|------------------------------------------------------------------------
-|---12--10--8--7--7h8p7----7-8----------12-12/13-13/15-15/17-17/19-19/20-
-|-10--10--10-10-10-----8-10---10~-10-10----------------------------------
-|------------------------------------------------------------------------
-|------------------------------------------------------------------------
( distortion )
-|---------------------13-13~-13-15-16-15-13-11-13--------------------------------------
-|-13-13~-15-15~-16-16~---------------------------11-11~-8h10h12/13~-12h13p12-----15-15~-
-|---------------------------------------------------------------------------15-13------
-|---------------------------------------------------------------------------------------
-|---------------------------------------------------------------------------------------
-|---------------------------------------------------------------------------------------
Guitar 2 ( repeats till end of solo )
-|---------|
-|---------|
-|-------4-|
-|-2-6-7-4-|
-|-0-6-7-2-|
-|-0-4-5---|
Guitar 1 ( repeat this twice )
-|---------------------------------------------------------------------------------------
-|---------------------------------------------------------------------------------------
-|------12--10--8--7--7h8p7--------7-8------12--10--8--7--15-13h15p13-12--------12-13----
-|-10-10--10--10-10-10-----8-6h8-10---10~-10--10--10-10-10--------------15-13-15-----10~-
-|---------------------------------------------------------------------------------------
-|---------------------------------------------------------------------------------------
    pm pm pm pm pm pm                     pm pm pm pm pm

Bridge
Guitars 1 & 2
-|-----|
-|-----|
-|-----|
-|-8-6-|
-|-8-6-|
-|-6-4-|
Suggest correction
Give kudos to tab author, rate the tab!
1 2 3 4 5
comments
print report bad tab
4 comments total. Showing first comments.
0 reply
Monochrome666 72 Aug 28, 2006 10:11 AM

I can't say it's correct. In Flames uses "C". But good job anyway.

0 reply
In Flames \m/ 10 Nov 27, 2007 12:14 PM


0 reply
Nikola. 10 May 15, 2010 01:03 PM

( distortded part )
-|---------------------------13--13~-13-15-16-15-13-11-13-
-|-13--13~--15--15~--16--16~------------------------------
-|-15b-15b--17b-17b--18b-18b------------------------------
-|--------------------------------------------------------
-|--------------------------------------------------------
-|--------------------------------------------------------

---------------------------------------
11-11~-8h10h12/13~-12h13p12-----15-15~-
---------------------------15-13-------
---------------------------------------
---------------------------------------
---------------------------------------
you need to bend on the start of the distorded part of solo like this,you have the wrong tuning they are using drop A# and C tuning,4 stars

guest
You may want to rate the tab now too:
select rating
Wanna post a correction for this tab? Suggest correction