Oops, an error
Loading. Please wait.

Adrenalize Bass Tab

version 1
version 1

Whole song

Interactive

31 views 1 this week
no commentswrite comment
1 2 3 4 5
3 more votes to show rating
add to favorites
launch autoscroll
font size
0
reset
guitar tuner
Autoscroll
slow
fast
+/-
esc
set tempo
stop
Help us to improve Ultimate-Guitar.com Take our survey!
×
Author
Difficulty
intermediate
Artist : In This Moment
Album : Blood
Song : Adrenalize

I've no idea what tuning they use, so I wrote it with the standard one

[Intro]
  4/4
G|----------------------------------------------------------------|
D|--------------------------------------------------------4-------|
A|4-4r--4-4r--4-4r--4-4r--4-4r--4-4r--4-4r--4-4r--4-4r--4------7--|
E|----------------------------------------------------------------|
  1       +       2       +       3       +       4       +       

G|----------------------------------------------------------------|
D|----------------------------------------------------------------|
A|4-4r--4-4r--4-4r--4-4r--4-4r--4-4r--4-4r--4-4r--7-------9-------|
E|----------------------------------------------------------------|
  1       +       2       +       3       +       4       +  

G|----------------------------------------------------------------|
D|--------------------------------------------------------4-------|
A|4-4r--4-4r--4-4r--4-4r--4-4r--4-4r--4-4r--4-4r--4-4r--4------7--|
E|----------------------------------------------------------------|
  1       +       2       +       3       +       4       +            

G|----------------------------------------------------------------|
D|----------------------------------------------------------------|
A|4-4r--4-4r--4-4r--4-4r--4-4r--4-4\------------------------------|
E|----------------------------------------------------------------|
  1       +       2       +       3       +       4       +  


[Verse]

G|------------------------------------------------|------------------------------------4h6p4-----------|
D|------------------------------------------------|------------------------------------------6-4-------|
A|4---4---4---4---4---4---4---4---4--/9^-r9---7---|4---4---4---4---4---4---4---4---4-------------7-----|
E|------------------------------------------------|----------------------------------------------------|
  1     +     2     +     3     +     4     +      1     +     2     +     3     +     4       + 

G|------------------------------------------------|------------------------------------------------|
D|------------------------------------------------|------------------------------------------------|
A|4---4---4---4---4---4---4---4---4--/9^-r9---7---|4---4---4---4---4---4---4r----------------------| x4
E|------------------------------------------------|------------------------------------------------|
  1     +     2     +     3     +     4     +      1     +     2     +     3     +     4     +      


[Pre-Chorus]

G|------------------------------------------------|------------------------------------------------|
D|------------------------------------------------|------------------------------------------------|
A|4---4---4---4---4---4---4---4---4--/9^-r9---7---|4---4---4---4---4---4---4---4---4---------------|
E|------------------------------------------------|------------------------------------0---2---4---|
  1     +     2     +     3     +     4     +      1     +     2     +     3     +     4     +      

G|------------------------------------------------|------------------------------------------------|
D|------------------------------------------------|------------------------------------------------|
A|0-----------------------------------------------|2-----------------------5r----------------------|
E|------------------------------------------------|------------------------------------------------|
  1     +     2     +     3     +     4     +      1     +     2     +     3     +     4     +    


[Chorus]

G|------------------------------------------------|------------------------------------------------|
D|----------x-4^--------------------x-4^----------|----------x-4^--------------7-------------------|
A|4--4--------------------2--2--------------------|0--0--------------------------4-----5-----5-----|-|
E|------------------------------------------------|------------------------4-----------------------| |
  1     +     2     +     3     +     4     +      1     +     2     +     3     +     4     +       |
                                                                                                     | x2
G|------------------------------------------------|------------------------------------------------| | 
D|----------x-4^--------------------x-4^----------|----------x-4^----------------------------------|-|
A|4--4--------------------2--2--------------------|0--0--------------------------------5-----------|
E|------------------------------------------------|------------------------4-----------------------|
  1     +     2     +     3     +     4     +      1     +     2     +     3     +     4     +      


[Verse]

G|------------------------------------------------|------------------------------------------------|
D|------------------------------------------------|------------------------------------------------|
A|4---4---4---4---4---4---4---4---4--/9^-r9---7---|4---4---4---4---4---4---4---4---4---4r----------| 
E|------------------------------------------------|------------------------------------------------|
  1     +     2     +     3     +     4     +      1     +     2     +     3     +     4     +   

G|------------------------------------------------|------------------------------------4h6p4-----------|
D|------------------------------------------------|------------------------------------------6-4-------|
A|4---4---4---4---4---4---4---4---4--/9^-r9---7---|4---4---4---4---4---4---4---4---4-------------7-----|
E|------------------------------------------------|----------------------------------------------------|
  1     +     2     +     3     +     4     +      1     +     2     +     3     +     4       +        

G|------------------------------------------------|------------------------------------------------|
D|------------------------------------------------|------------------------------------------------|
A|4---4---4---4---4---4---4---4---4--/9^-r9---7---|4---4---4---4---4---4---4---4---4---4r----------| 
E|------------------------------------------------|------------------------------------------------|
  1     +     2     +     3     +     4     +      1     +     2     +     3     +     4     +     


[Pre-Chorus]

G|------------------------------------------------|------------------------------------------------|
D|------------------------------------------------|------------------------------------------------|
A|4---4---4---4---4---4---4---4---4--/9^-r9---7---|4---4---4---4---4---4---4---4---4---------------|
E|------------------------------------------------|------------------------------------0---2---4---|
  1     +     2     +     3     +     4     +      1     +     2     +     3     +     4     +      

G|------------------------------------------------|------------------------------------------------|
D|------------------------------------------------|------------------------------------------------|
A|0-----------------------------------------------|2-----------------------5\----------------------|
E|------------------------------------------------|------------------------------------------------|
  1     +     2     +     3     +     4     +      1     +     2     +     3     +     4     +  


[Chorus]

G|------------------------------------------------|------------------------------------------------|
D|----------x-4^--------------------x-4^----------|----------x-4^--------------7-------------------|
A|4--4--------------------2--2--------------------|0--0--------------------------4-----5-----5-----|-|
E|------------------------------------------------|------------------------4-----------------------| |
  1     +     2     +     3     +     4     +      1     +     2     +     3     +     4     +       |
                                                                                                     | x2
G|------------------------------------------------|------------------------------------------------| | 
D|----------x-4^--------------------x-4^----------|----------x-4^----------------------------------|-|
A|4--4--------------------2--2--------------------|0--0--------------------------------5-----------|
E|------------------------------------------------|------------------------4-----------------------|
  1     +     2     +     3     +     4     +      1     +     2     +     3     +     4     +      


[Bridge]

2 bars without bass

G|------------------------------------------------|------------------------------------------------|
D|------------------------------------------------|------------------------------------------------|
A|4---4---4---4---4---4---4---4---4--/9^-r9---7---|4---4---4---4---4---4---4\----------------------|
E|------------------------------------------------|------------------------------------------------|
  1     +     2     +     3     +     4     +      1     +     2     +     3     +     4     +      

G|------------------------------------------------|------------------------------------4h6p4-----------|
D|------------------------------------------------|------------------------------------------6-4-------|
A|4---4---4---4---4---4---4---4---4--/9^-r9---7---|4---4---4---4---4---4---4---4---4-------------7-----|
E|------------------------------------------------|----------------------------------------------------|
  1     +     2     +     3     +     4     +      1     +     2     +     3     +     4       + 

G|------------------------------------------------|------------------------------------------------|
D|------------------------------------------------|------------------------------------------------|
A|4---4---4---4---4---4---4---4---4--/9^-r9---7---|4---4---4---4---4---4---4--peculiar-DJ-thingy---|
E|------------------------------------------------|------------------------------------------------|
  1     +     2     +     3     +     4     +      1     +     2     +     3     +     4     +   

G|----------------------------------------------------------------|
D|--------------------------------------------------------4-------|
A|4-4r--4-4r--4-4r--4-4r--4-4r--4-4r--4-4r--4-4r--4-4r--4------7--|
E|----------------------------------------------------------------|
  1       +       2       +       3       +       4       +       

G|----------------------------------------------------------------|
D|----------------------------------------------------------------|
A|4-4r--4-4r--4-4r--4-4r--4-4r--4-4r--4-4r--4-4r--7-------9-------|
E|----------------------------------------------------------------|
  1       +       2       +       3       +       4       +  

G|----------------------------------------------------------------|
D|--------------------------------------------------------4-------|
A|4-4r--4-4r--4-4r--4-4r--4-4r--4-4r--4-4r--4-4r--4-4r--4------7--|
E|----------------------------------------------------------------|
  1       +       2       +       3       +       4       +            

G|----------------------------------------------------------------|
D|----------------------------------------------------------------|
A|4-4r--4-4r--4-4r--4-4r--4-4r--4-4\------------------------------|
E|----------------------------------------------------------------|
  1       +       2       +       3       +       4       +  

G|------------------------------------------------|
D|6-----------------------------------------------|
A|----7---4---5r----------------------------------|
E|------------------------------------------------|
  1     +     2     +     3     +     4     +     


[End Chorus]

G|------------------------------------------------|------------------------------------------------|
D|------------------------------------------------|------------------------------------------------|
A|4--4------x-4--4------x-2--2------x-2--2------x-|0--0------x-0--0--------------4-----5-----5-----| x4
E|------------------------------------------------|------------------------4-----------------------| 
  1     +     2     +     3     +     4     +      1     +     2     +     3     +     4     +       



************************************

| x   Dead note
| h   Hammer-on
| p   Pull-off
| r   Release
| ^   Bend
| /   Slide up
| \   Slide down

************************************
Suggest correction
Give kudos to tab author, rate the tab!
1 2 3 4 5
comments
print report bad tab
guest
You may want to rate the tab now too:
select rating
Wanna post a correction for this tab? Suggest correction