Oops, an error
Loading. Please wait.

Prayers tab

version 1
version 1

Whole song

Interactive

12,221 views 1 this week
5 commentsread comments
1 2 3 4 5
x 4
add to favorites
×
Save as Personal and add changes to this tab that will be seen only by you. Learn more ›
×
You can save this tab as Personal to edit and correct it or add notes. All changes will be seen only by you. Learn more »
launch autoscroll
font size
0
reset
how to read this tab
guitar tuner
edit
Autoscroll
slow
fast
+/-
esc
set tempo
stop
Author
Difficulty
                Prayers - In This Moment
----------------------------------------------------------------------------

Tabbed: Mr Lordi
Email: Coldfear275@aim.com

Alright here it is "Prayers" by In This Moment
They use 7-Stringed Guitars in standard tuning so thats how
I tabbed it, if you dont have a 7-String you can just play it in dropped B tuning and 
be all good

(Lead Guitar)


Intro
                  PM PM PM PM       PM PM PM PM    PM PM PM PM    PM PM
     Q    Q    E  S  S  S  S  E     S  S  S  S  E  S  S  S  S  E  S  S  E
E||------------------------------|-----------------------------------------|
B||------------------------------|-----------------------------------------|
G||------------7--------------7--|--------------7--------------7--------7--|
D||------------5--------------5--|--------------5--------------5--------5--|
A||--7----7----7--------------7--|--------------7--------------7--------7--|
E||--7----7----7--------------7--|--------------7--------------7--------7--|
B||--5----5-------5--5--5--5-----|--5--5--5--5-----5--5--5--5-----5--5-----|


               PM PM PM PM       PM PM PM PM    PM PM PM PM    PM PM
  Q    Q    E  S  S  S  S  E     S  S  S  S  E  S  S  S  S  E  S  S  E
------------------------------|-----------------------------------------|
------------------------------|-----------------------------------------|
------------7--------------7--|--------------7--------------7--------7--|
------------7--------------7--|--------------7--------------7--------7--|
--5----5----5--------------5--|--------------5--------------5--------5--|
--5----5----5--------------5--|--------------5--------------5--------5--|
--3----3-------3--3--3--3-----|--3--3--3--3-----3--3--3--3-----3--3-----|


               PM PM PM PM       PM PM PM PM    PM PM PM PM    PM PM
  Q    Q    E  S  S  S  S  E     S  S  S  S  E  S  S  S  S  E  S  S  E
------------------------------|-----------------------------------------|
------------------------------|-----------------------------------------|
------------4--------------4--|--------------4--------------4--------4--|
------------4--------------4--|--------------4--------------4--------4--|
--2----2----2--------------4--|--------------2--------------2--------2--|
--2----2----2--------------2--|--------------2--------------2--------2--|
--0----0-------0--0--0--0-----|--0--0--0--0-----0--0--0--0-----0--0-----|


  Q    Q    E  S S S S E     S S S S E  S S S S E  S S E
--------------------------|-------------------------------|
--------------------------|-------------------------------|
------------5----------5--|----------5----------5------5--|
------------5----------5--|----------5----------5------5--|
--3----3----3----------3--|----------3----------3------3--|
--3----3----3----------3--|----------3----------3------3--|
--1----1-------1-1-1-1----|--1-1-1-1----1-1-1-1----1-1----|


               PM PM PM PM       PM PM PM PM    PM PM PM PM    PM PM
  Q    Q    E  S  S  S  S  E     S  S  S  S  E  S  S  S  S  E  S  S  E
------------------------------|-----------------------------------------|
------------------------------|-----------------------------------------|
------------7--------------7--|--------------7--------------7--------7--|
------------5--------------5--|--------------5--------------5--------5--|
--7----7----7--------------7--|--------------7--------------7--------7--|
--7----7----7--------------7--|--------------7--------------7--------7--|
--5----5-------5--5--5--5-----|--5--5--5--5-----5--5--5--5-----5--5-----|


               PM PM PM PM       PM PM PM PM    PM PM PM PM    PM PM
  Q    Q    E  S  S  S  S  E     S  S  S  S  E  S  S  S  S  E  S  S  E
------------------------------|-----------------------------------------|
------------------------------|-----------------------------------------|
------------7--------------7--|--------------7--------------7--------7--|
------------7--------------7--|--------------7--------------7--------7--|
--5----5----5--------------5--|--------------5--------------5--------5--|
--5----5----5--------------5--|--------------5--------------5--------5--|
--3----3-------3--3--3--3-----|--3--3--3--3-----3--3--3--3-----3--3-----|


               PM PM PM PM       PM PM PM PM    PM PM PM PM    PM PM
  Q    Q    E  S  S  S  S  E     S  S  S  S  E  S  S  S  S  E  S  S  E
------------------------------|-----------------------------------------|
------------------------------|-----------------------------------------|
------------4--------------4--|--------------4--------------4--------4--|
------------4--------------4--|--------------4--------------4--------4--|
--2----2----2--------------4--|--------------2--------------2--------2--|
--2----2----2--------------2--|--------------2--------------2--------2--|
--0----0-------0--0--0--0-----|--0--0--0--0-----0--0--0--0-----0--0-----|


  Q    Q    E  S S S S E     S S S S E  S S S S E  S S E
--------------------------|-------------------------------|
--------------------------|-------------------------------|
------------5----------5--|----------5----------5------5--|
------------5----------5--|----------5----------5------5--|
--3----3----3----------3--|----------3----------3------3--|
--3----3----3----------3--|----------3----------3------3--|
--1----1-------1-1-1-1----|--1-1-1-1----1-1-1-1----1-1----|

Verse
   E   E   E   E   E   E   E   E      E   E   E   E   E   E   E   E
----------------------------------|----------------------------------|
----------------------------------|----------------------------------|
----------------------------------|----------------------------------|
--14--14--14--14--14--14--14--14--|--14--17--17--17--17--16--16--16--|
---x---x---x---x---x---x---x---x--|---x---x---x---x---x---x---x---x--|
--12--12--12--12--12--12--12--12--|--12--15--15--15--15--14--14--14--|
----------------------------------|----------------------------------|


   E   E   E   E   E   E   E   E      E   E   E   E   E   E   E   E
----------------------------------|----------------------------------|
----------------------------------|----------------------------------|
----------------------------------|----------------------------------|
--12--12--12--12--12--12--12--12--|--12--16--16--16--16--17--17--17--|
---x---x---x---x---x---x---x---x--|---x---x---x---x---x---x---x---x--|
--10--10--10--10--10--10--10--10--|--10--14--14--14--14--15--15--15--|
----------------------------------|----------------------------------|


  E  E  E  E  E  E  E  E     E  E  E  E  E  E   E   E
--------------------------|----------------------------|
--------------------------|----------------------------|
--------------------------|----------------------------|
--9--9--9--9--9--9--9--9--|--9--7--7--7--9--9--10--10--|
--x--x--x--x--x--x--x--x--|--x--x--x--x--x--x---x---x--|
--7--7--7--7--7--7--7--7--|--7--5--5--5--7--7---8---8--|
--------------------------|----------------------------|


   E   E   E   E   E   E   E   E      E   E   E   E   E   E   E   E
----------------------------------|----------------------------------|
----------------------------------|----------------------------------|
----------------------------------|----------------------------------|
--10--10--10--10--10--10--10--10--|--10--10--10--10--12--12--12--12--|
---x---x---x---x---x---x---x---x--|---x---x---x---x---x---x---x---x--|
---8---8---8---8---8---8---8---8--|---8---8---8---8--10--10--10--10--|
----------------------------------|----------------------------------|


   E   E   E   E   E   E   E   E      E   E   E   E   E   E   E   E
----------------------------------|----------------------------------|
----------------------------------|----------------------------------|
----------------------------------|----------------------------------|
--14--14--14--14--14--14--14--14--|--14--17--17--17--17--16--16--16--|
---x---x---x---x---x---x---x---x--|---x---x---x---x---x---x---x---x--|
--12--12--12--12--12--12--12--12--|--12--15--15--15--15--14--14--14--|
----------------------------------|----------------------------------|


   E   E   E   E   E   E   E   E      E   E   E   E   E   E   E   E
----------------------------------|----------------------------------|
----------------------------------|----------------------------------|
----------------------------------|----------------------------------|
--12--12--12--12--12--12--12--12--|--12--16--16--16--16--17--17--17--|
---x---x---x---x---x---x---x---x--|---x---x---x---x---x---x---x---x--|
--10--10--10--10--10--10--10--10--|--10--14--14--14--14--15--15--15--|
----------------------------------|----------------------------------|


  E  E  E  E  E  E  E  E     E  E  E  E  E  E   E   E
--------------------------|----------------------------|
--------------------------|----------------------------|
--------------------------|----------------------------|
--9--9--9--9--9--9--9--9--|--9--7--7--7--9--9--10--10--|
--x--x--x--x--x--x--x--x--|--x--x--x--x--x--x---x---x--|
--7--7--7--7--7--7--7--7--|--7--5--5--5--7--7---8---8--|
--------------------------|----------------------------|


   E   E   E   E   E   E   E   E      E   E   E   E   E   E   E   E
----------------------------------|----------------------------------|
----------------------------------|----------------------------------|
----------------------------------|----------------------------------|
--10--10--10--10--10--10--10--10--|--10--10--10--10--12--12--12--12--|
---x---x---x---x---x---x---x---x--|---x---x---x---x---x---x---x---x--|
---8---8---8---8---8---8---8---8--|---8---8---8---8--10--10--10--10--|
----------------------------------|----------------------------------|

Pre - Chorus
  PM PM PM    PM PM PM                PM PM    PM PM PM PM
  S  S  E  E  S  S  E  E  E  E     E  E  E  E  E  E  E  E
--------------------------------|--------------------------|
--------------------------------|--------------------------|
--------------------------------|--------------------------|
--------------------------------|--------------------------|
--------------------------------|--------------------------|
--2--2--2-----2--2--2-----------|-----2--2-----2--2--2--2--|
--0--0--0-----0--0--0-----------|-----0--0-----0--0--0--0--|


  PM PM PM    PM PM PM
  S  S  E  E  S  S  E  E  E  E     E  E  E  E  E  E  E  E
--------------------------------|--------------------------|
--------------------------------|--------------------------|
--------------------------------|--------------------------|
--------------------------------|--------------------------|
--------------------------------|--9--7--5--4--9--7--4--5--|
--2--2--2-----2--2--2-----------|--------------------------|
--0--0--0-----0--0--0-----------|--------------------------|


  PM PM PM    PM PM PM                PM PM    PM PM PM PM
  S  S  E  E  S  S  E  E  E  E     E  E  E  E  E  E  E  E
--------------------------------|--------------------------|
--------------------------------|--------------------------|
--------------------------------|--------------------------|
--------------------------------|--------------------------|
--------------------------------|--------------------------|
--2--2--2-----2--2--2-----------|-----2--2-----2--2--2--2--|
--0--0--0-----0--0--0-----------|-----0--0-----0--0--0--0--|


  PM PM PM    PM PM PM             PM PM PM PM    PM
  S  S  E  E  S  S  E  E  E  E     S  S  E  E  E  E   E  E  E
--------------------------------|------------------------------|
--------------------------------|------------------------------|
--------------------------------|------------------------------|
--------------------------------|------------------------------|
--------------------------------|--------------9-----10--7--5--|
--2--2--2-----2--2--2-----------|--2--2--2---------------------|
--0--0--0-----0--0--0-----------|--0--0--0--0-----0------------|


  PM PM PM PM PM PM PM          PM PM PM PM PM PM PM
  E  E  S  S  E  E  E  E  E     E  E  S  S  E  E  E  E  E
-----------------------------|-----------------------------|
-----------------------------|-----------------------------|
-----------------------------|-----------------------------|
-----------------------------|-----------------------------|
-----------------------------|-----------------------------|
--2--2--2--2--2--2--2--------|--2--2--2--2--2--2--2--------|
--0--0--0--0--0--0--0--------|--0--0--0--0--0--0--0--------|


  PM PM PM PM PM PM PM          PM PM PM PM PM PM PM
  E  E  S  S  E  E  E  E  E     E  E  S  S  E  E  E  E  E
-----------------------------|-----------------------------|
-----------------------------|-----------------------------|
-----------------------------|-----------------------------|
-----------------------------|-----------------------------|
-----------------------------|-----------------------------|
--2--2--2--2--2--2--2--------|--2--2--2--2--2--2--2--------|
--0--0--0--0--0--0--0--------|--0--0--0--0--0--0--0--------|


  PM PM PM PM PM PM PM          PM PM PM PM PM PM PM
  E  E  S  S  E  E  E  E  E     E  E  S  S  E  E  E  E  E
-----------------------------|-----------------------------|
-----------------------------|-----------------------------|
-----------------------------|-----------------------------|
-----------------------------|-----------------------------|
-----------------------------|-----------------------------|
--2--2--2--2--2--2--2--------|--2--2--2--2--2--2--2--------|
--0--0--0--0--0--0--0--------|--0--0--0--0--0--0--0--------|


  PM PM PM PM PM PM PM             PM PM PM    PM PM PM
  E  E  S  S  E  E  E  E  E     E  E  E  E  E  E  E  E
-----------------------------|--------------------------|
-----------------------------|--------------------------|
-----------------------------|--------------------------|
-----------------------------|--------------------------|
-----------------------------|--------------------------|
--2--2--2--2--2--2--2--------|-----2--2--2-----2--2--2--|
--0--0--0--0--0--0--0--------|-----0--0--0-----0--0--0--|

Chorus
  E  E  E  E  E  E  E  E     E  E  E  E  E  E  E  E
--------------------------|--------------------------|
--------------------------|--------------------------|
--9--9--9--9--9--9--9--9--|--9--9--9--9--9--9--9--9--|
--9--9--9--9--9--9--9--9--|--9--9--9--9--9--9--9--9--|
--7--7--7--7--7--7--7--7--|--7--7--7--7--7--7--7--7--|
--7--7--7--7--7--7--7--7--|--7--7--7--7--7--7--7--7--|
--------------------------|--------------------------|


  E  E  E  E  E  E  E  E     E  E  E  E  E  E  E  E
--------------------------|--------------------------|
--------------------------|--------------------------|
--7--7--7--7--7--7--7--7--|--7--7--7--7--7--7--7--7--|
--7--7--7--7--7--7--7--7--|--7--7--7--7--7--7--7--7--|
--5--5--5--5--5--5--5--5--|--5--5--5--5--5--5--5--5--|
--5--5--5--5--5--5--5--5--|--5--5--5--5--5--5--5--5--|
--------------------------|--------------------------|


  E  E  E  E  E  E  E  E     E  E  E  E  E  E  E  E
--------------------------|--------------------------|
--------------------------|--------------------------|
--4--4--4--4--4--4--4--4--|--4--4--4--4--4--4--4--4--|
--4--4--4--4--4--4--4--4--|--4--4--4--4--4--4--4--4--|
--2--2--2--2--2--2--2--2--|--2--2--2--2--2--2--2--2--|
--2--2--2--2--2--2--2--2--|--2--2--2--2--2--2--2--2--|
--------------------------|--------------------------|


  E  E  E  E  E  E  E  E     E  E  E  E  E  E  E  E
--------------------------|--------------------------|
--------------------------|--------------------------|
--5--5--5--5--5--5--5--5--|--5--5--5--5--7--7--7--7--|
--5--5--5--5--5--5--5--5--|--5--5--5--5--7--7--7--7--|
--3--3--3--3--3--3--3--3--|--3--3--3--3--5--5--5--5--|
--3--3--3--3--3--3--3--3--|--3--3--3--3--5--5--5--5--|
--------------------------|--------------------------|


  E  E  E  E  E  E  E  E     E  E  E  E  E  E  E  E
--------------------------|--------------------------|
--------------------------|--------------------------|
--9--9--9--9--9--9--9--9--|--9--9--9--9--9--9--9--9--|
--9--9--9--9--9--9--9--9--|--9--9--9--9--9--9--9--9--|
--7--7--7--7--7--7--7--7--|--7--7--7--7--7--7--7--7--|
--7--7--7--7--7--7--7--7--|--7--7--7--7--7--7--7--7--|
--------------------------|--------------------------|


  E  E  E  E  E  E  E  E     E  E  E  E  E  E  E  E
--------------------------|--------------------------|
--------------------------|--------------------------|
--7--7--7--7--7--7--7--7--|--7--7--7--7--7--7--7--7--|
--7--7--7--7--7--7--7--7--|--7--7--7--7--7--7--7--7--|
--5--5--5--5--5--5--5--5--|--5--5--5--5--5--5--5--5--|
--5--5--5--5--5--5--5--5--|--5--5--5--5--5--5--5--5--|
--------------------------|--------------------------|


  E  E  E  E  E  E  E  E     E  E  E  E  E  E  E  E
--------------------------|--------------------------|
--------------------------|--------------------------|
--4--4--4--4--4--4--4--4--|--4--4--4--4--4--4--4--4--|
--4--4--4--4--4--4--4--4--|--4--4--4--4--4--4--4--4--|
--2--2--2--2--2--2--2--2--|--2--2--2--2--2--2--2--2--|
--2--2--2--2--2--2--2--2--|--2--2--2--2--2--2--2--2--|
--------------------------|--------------------------|


  E  E  E  E  E  E  E  E     E  E  E  E  E  E  E  E
--------------------------|--------------------------|
--------------------------|--------------------------|
--5--5--5--5--5--5--5--5--|--5--5--5--5--7--7--7--7--|
--5--5--5--5--5--5--5--5--|--5--5--5--5--7--7--7--7--|
--3--3--3--3--3--3--3--3--|--3--3--3--3--5--5--5--5--|
--3--3--3--3--3--3--3--3--|--3--3--3--3--5--5--5--5--|
--------------------------|--------------------------|

Verse 2
  PM PM PM    PM PM PM                PM PM    PM PM PM PM
  S  S  E  E  S  S  E  E  E  E     E  E  E  E  E  E  E  E
--------------------------------|--------------------------|
--------------------------------|--------------------------|
--------------------------------|--------------------------|
--------------------------------|--------------------------|
--------------------------------|--------------------------|
--2--2--2-----2--2--2-----------|-----2--2-----2--2--2--2--|
--0--0--0-----0--0--0-----------|-----0--0-----0--0--0--0--|


  PM PM PM    PM PM PM
  S  S  E  E  S  S  E  E  E  E     E  E  E  E  E  E  E  E
--------------------------------|--------------------------|
--------------------------------|--------------------------|
--------------------------------|--------------------------|
--------------------------------|--------------------------|
--------------------------------|--9--7--5--4--9--7--4--5--|
--2--2--2-----2--2--2-----------|--------------------------|
--0--0--0-----0--0--0-----------|--------------------------|


  PM PM PM    PM PM PM                PM PM    PM PM PM PM
  S  S  E  E  S  S  E  E  E  E     E  E  E  E  E  E  E  E
--------------------------------|--------------------------|
--------------------------------|--------------------------|
--------------------------------|--------------------------|
--------------------------------|--------------------------|
--------------------------------|--------------------------|
--2--2--2-----2--2--2-----------|-----2--2-----2--2--2--2--|
--0--0--0-----0--0--0-----------|-----0--0-----0--0--0--0--|


  PM PM PM    PM PM PM             PM PM PM PM    PM
  S  S  E  E  S  S  E  E  E  E     S  S  E  E  E  E   E  E  E
--------------------------------|------------------------------|
--------------------------------|------------------------------|
--------------------------------|------------------------------|
--------------------------------|------------------------------|
--------------------------------|--------------9-----10--7--5--|
--2--2--2-----2--2--2-----------|--2--2--2---------------------|
--0--0--0-----0--0--0-----------|--0--0--0--0-----0------------|


  PM PM PM PM PM PM PM          PM PM PM PM PM PM PM
  E  E  S  S  E  E  E  E  E     E  E  S  S  E  E  E  E  E
-----------------------------|-----------------------------|
-----------------------------|-----------------------------|
-----------------------------|-----------------------------|
-----------------------------|-----------------------------|
-----------------------------|-----------------------------|
--2--2--2--2--2--2--2--------|--2--2--2--2--2--2--2--------|
--0--0--0--0--0--0--0--------|--0--0--0--0--0--0--0--------|


  PM PM PM PM PM PM PM          PM PM PM PM PM PM PM
  E  E  S  S  E  E  E  E  E     E  E  S  S  E  E  E  E  E
-----------------------------|-----------------------------|
-----------------------------|-----------------------------|
-----------------------------|-----------------------------|
-----------------------------|-----------------------------|
-----------------------------|-----------------------------|
--2--2--2--2--2--2--2--------|--2--2--2--2--2--2--2--------|
--0--0--0--0--0--0--0--------|--0--0--0--0--0--0--0--------|


  PM PM PM PM PM PM PM          PM PM PM PM PM PM PM
  E  E  S  S  E  E  E  E  E     E  E  S  S  E  E  E  E  E
-----------------------------|-----------------------------|
-----------------------------|-----------------------------|
-----------------------------|-----------------------------|
-----------------------------|-----------------------------|
-----------------------------|-----------------------------|
--2--2--2--2--2--2--2--------|--2--2--2--2--2--2--2--------|
--0--0--0--0--0--0--0--------|--0--0--0--0--0--0--0--------|


  PM PM PM PM PM PM PM             PM PM PM    PM PM PM
  E  E  S  S  E  E  E  E  E     E  E  E  E  E  E  E  E
-----------------------------|--------------------------|
-----------------------------|--------------------------|
-----------------------------|--------------------------|
-----------------------------|--------------------------|
-----------------------------|--------------------------|
--2--2--2--2--2--2--2--------|-----2--2--2-----2--2--2--|
--0--0--0--0--0--0--0--------|-----0--0--0-----0--0--0--|

Chorus
  E  E  E  E  E  E  E  E     E  E  E  E  E  E  E  E
--------------------------|--------------------------|
--------------------------|--------------------------|
--9--9--9--9--9--9--9--9--|--9--9--9--9--9--9--9--9--|
--9--9--9--9--9--9--9--9--|--9--9--9--9--9--9--9--9--|
--7--7--7--7--7--7--7--7--|--7--7--7--7--7--7--7--7--|
--7--7--7--7--7--7--7--7--|--7--7--7--7--7--7--7--7--|
--------------------------|--------------------------|


  E  E  E  E  E  E  E  E     E  E  E  E  E  E  E  E
--------------------------|--------------------------|
--------------------------|--------------------------|
--7--7--7--7--7--7--7--7--|--7--7--7--7--7--7--7--7--|
--7--7--7--7--7--7--7--7--|--7--7--7--7--7--7--7--7--|
--5--5--5--5--5--5--5--5--|--5--5--5--5--5--5--5--5--|
--5--5--5--5--5--5--5--5--|--5--5--5--5--5--5--5--5--|
--------------------------|--------------------------|


  E  E  E  E  E  E  E  E     E  E  E  E  E  E  E  E
--------------------------|--------------------------|
--------------------------|--------------------------|
--4--4--4--4--4--4--4--4--|--4--4--4--4--4--4--4--4--|
--4--4--4--4--4--4--4--4--|--4--4--4--4--4--4--4--4--|
--2--2--2--2--2--2--2--2--|--2--2--2--2--2--2--2--2--|
--2--2--2--2--2--2--2--2--|--2--2--2--2--2--2--2--2--|
--------------------------|--------------------------|


  E  E  E  E  E  E  E  E     E  E  E  E  E  E  E  E
--------------------------|--------------------------|
--------------------------|--------------------------|
--5--5--5--5--5--5--5--5--|--5--5--5--5--7--7--7--7--|
--5--5--5--5--5--5--5--5--|--5--5--5--5--7--7--7--7--|
--3--3--3--3--3--3--3--3--|--3--3--3--3--5--5--5--5--|
--3--3--3--3--3--3--3--3--|--3--3--3--3--5--5--5--5--|
--------------------------|--------------------------|


  E  E  E  E  E  E  E  E     E  E  E  E  E  E  E  E
--------------------------|--------------------------|
--------------------------|--------------------------|
--9--9--9--9--9--9--9--9--|--9--9--9--9--9--9--9--9--|
--9--9--9--9--9--9--9--9--|--9--9--9--9--9--9--9--9--|
--7--7--7--7--7--7--7--7--|--7--7--7--7--7--7--7--7--|
--7--7--7--7--7--7--7--7--|--7--7--7--7--7--7--7--7--|
--------------------------|--------------------------|


  E  E  E  E  E  E  E  E     E  E  E  E  E  E  E  E
--------------------------|--------------------------|
--------------------------|--------------------------|
--7--7--7--7--7--7--7--7--|--7--7--7--7--7--7--7--7--|
--7--7--7--7--7--7--7--7--|--7--7--7--7--7--7--7--7--|
--5--5--5--5--5--5--5--5--|--5--5--5--5--5--5--5--5--|
--5--5--5--5--5--5--5--5--|--5--5--5--5--5--5--5--5--|
--------------------------|--------------------------|


  E  E  E  E  E  E  E  E     E  E  E  E  E  E  E  E
--------------------------|--------------------------|
--------------------------|--------------------------|
--4--4--4--4--4--4--4--4--|--4--4--4--4--4--4--4--4--|
--4--4--4--4--4--4--4--4--|--4--4--4--4--4--4--4--4--|
--2--2--2--2--2--2--2--2--|--2--2--2--2--2--2--2--2--|
--2--2--2--2--2--2--2--2--|--2--2--2--2--2--2--2--2--|
--------------------------|--------------------------|


  E  E  E  E  E  E  E  E     E  E  E  E  E  E  E  E
--------------------------|--------------------------|
--------------------------|--------------------------|
--5--5--5--5--5--5--5--5--|--5--5--5--5--7--7--7--7--|
--5--5--5--5--5--5--5--5--|--5--5--5--5--7--7--7--7--|
--3--3--3--3--3--3--3--3--|--3--3--3--3--5--5--5--5--|
--3--3--3--3--3--3--3--3--|--3--3--3--3--5--5--5--5--|
--------------------------|--------------------------|

Bridge
  S S S S S S S S S S S S S S S S    S S S S S S S S S S S S S S S S
----------------------------------|----------------------------------|
----------------------------------|----------------------------------|
----------------------------------|----------------------------------|
----------------------------------|----------------------------------|
--7-7-7-7-7-7-7-7-7-7-7-7-7-7-7-7-|--5-5-5-5-5-5-5-5-5-5-5-5-5-5-5-5-|
----------------------------------|----------------------------------|
----------------------------------|----------------------------------|


  S S S S S S S S S S S S S S S S    S S S S S S S S S S S S S S S S
----------------------------------|----------------------------------|
----------------------------------|----------------------------------|
----------------------------------|----------------------------------|
----------------------------------|----------------------------------|
--2-2-2-2-2-2-2-2-2-2-2-2-2-2-2-2-|--3-3-3-3-3-3-3-3-3-3-3-3-3-3-3-3-|
----------------------------------|----------------------------------|
----------------------------------|----------------------------------|


  S S S S S S S S S S S S S S S S    S S S S S S S S S S S S S S S S
----------------------------------|----------------------------------|
----------------------------------|----------------------------------|
----------------------------------|----------------------------------|
----------------------------------|----------------------------------|
--7-7-7-7-7-7-7-7-7-7-7-7-7-7-7-7-|--5-5-5-5-5-5-5-5-5-5-5-5-5-5-5-5-|
----------------------------------|----------------------------------|
----------------------------------|----------------------------------|


  S S S S S S S S S S S S S S S S    S S S S S S S S S S S S S S S S
----------------------------------|----------------------------------|
----------------------------------|----------------------------------|
----------------------------------|----------------------------------|
----------------------------------|----------------------------------|
--2-2-2-2-2-2-2-2-2-2-2-2-2-2-2-2-|--3-3-3-3-3-3-3-3-3-3-3-3-3-3-3-3-|
----------------------------------|----------------------------------|
----------------------------------|----------------------------------|

Breakdown
        PM PM       PM PM       PM PM PM PM
   S  S S  S   S  S S  S   S  S S  S  S  S   S  S
--------------------------------------------------|
--------------------------------------------------|
--------------------------------------------------|
--------------------------------------------------|
--------------------------------------------------|
--12-13-------12-13-------12-13-------------12-13-|
--------0--0--------0--0--------0--0--0--0--------|


  PM PM       PM PM PM PM                   PM PM
  S  S   S  S S  S  S  S   S  S  S  S  S  S S  S
--------------------------------------------------|
--------------------------------------------------|
--------------------------------------------------|
--------------------------------------------------|
--------------------------------------------------|
--------12-13-------------12-13-12----------------|
--0--0--------0--0--0--0-----------15-13-12-0--0--|


        PM PM       PM PM       PM PM PM PM PM PM
   S  S S  S   S  S S  S   S  S S  S  S  S  S  S     Q    E  E  Q    Q
--------------------------------------------------|-----------------------|
--------------------------------------------------|-----------------------|
--------------------------------------------------|-----------------------|
--------------------------------------------------|-----------------------|
--------------------------------------------------|--3----5-----5----7----|
--12-13-------12-13-------12-13-------------------|--3----5-----5----7----|
--------0--0--------0--0--------0--0--0--0--0--0--|--1----3-----3----5----|


        PM PM       PM PM       PM PM PM PM
   S  S S  S   S  S S  S   S  S S  S  S  S   S  S
--------------------------------------------------|
--------------------------------------------------|
--------------------------------------------------|
--------------------------------------------------|
--------------------------------------------------|
--12-13-------12-13-------12-13-------------12-13-|
--------0--0--------0--0--------0--0--0--0--------|


  PM PM       PM PM PM PM                   PM PM
  S  S   S  S S  S  S  S   S  S  S  S  S  S S  S
--------------------------------------------------|
--------------------------------------------------|
--------------------------------------------------|
--------------------------------------------------|
--------------------------------------------------|
--------12-13-------------12-13-12----------------|
--0--0--------0--0--0--0-----------15-13-12-0--0--|


        PM PM       PM PM       PM PM PM PM PM PM
   S  S S  S   S  S S  S   S  S S  S  S  S  S  S     Q    E  E  Q    Q
--------------------------------------------------|-----------------------|
--------------------------------------------------|-----------------------|
--------------------------------------------------|-----------------------|
--------------------------------------------------|-----------------------|
--------------------------------------------------|--3----5-----5----7----|
--12-13-------12-13-------12-13-------------------|--3----5-----5----7----|
--------0--0--------0--0--------0--0--0--0--0--0--|--1----3-----3----5----|

Chorus
  E  E  E  E  E  E  E  E     E  E  E  E  E  E  E  E
--------------------------|--------------------------|
--------------------------|--------------------------|
--9--9--9--9--9--9--9--9--|--9--9--9--9--9--9--9--9--|
--9--9--9--9--9--9--9--9--|--9--9--9--9--9--9--9--9--|
--7--7--7--7--7--7--7--7--|--7--7--7--7--7--7--7--7--|
--7--7--7--7--7--7--7--7--|--7--7--7--7--7--7--7--7--|
--------------------------|--------------------------|


  E  E  E  E  E  E  E  E     E  E  E  E  E  E  E  E
--------------------------|--------------------------|
--------------------------|--------------------------|
--7--7--7--7--7--7--7--7--|--7--7--7--7--7--7--7--7--|
--7--7--7--7--7--7--7--7--|--7--7--7--7--7--7--7--7--|
--5--5--5--5--5--5--5--5--|--5--5--5--5--5--5--5--5--|
--5--5--5--5--5--5--5--5--|--5--5--5--5--5--5--5--5--|
--------------------------|--------------------------|


  E  E  E  E  E  E  E  E     E  E  E  E  E  E  E  E
--------------------------|--------------------------|
--------------------------|--------------------------|
--4--4--4--4--4--4--4--4--|--4--4--4--4--4--4--4--4--|
--4--4--4--4--4--4--4--4--|--4--4--4--4--4--4--4--4--|
--2--2--2--2--2--2--2--2--|--2--2--2--2--2--2--2--2--|
--2--2--2--2--2--2--2--2--|--2--2--2--2--2--2--2--2--|
--------------------------|--------------------------|


  E  E  E  E  E  E  E  E     E  E  E  E  E  E  E  E
--------------------------|--------------------------|
--------------------------|--------------------------|
--5--5--5--5--5--5--5--5--|--5--5--5--5--7--7--7--7--|
--5--5--5--5--5--5--5--5--|--5--5--5--5--7--7--7--7--|
--3--3--3--3--3--3--3--3--|--3--3--3--3--5--5--5--5--|
--3--3--3--3--3--3--3--3--|--3--3--3--3--5--5--5--5--|
--------------------------|--------------------------|


  E  E  E  E  E  E  E  E     E  E  E  E  E  E  E  E
--------------------------|--------------------------|
--------------------------|--------------------------|
--9--9--9--9--9--9--9--9--|--9--9--9--9--9--9--9--9--|
--9--9--9--9--9--9--9--9--|--9--9--9--9--9--9--9--9--|
--7--7--7--7--7--7--7--7--|--7--7--7--7--7--7--7--7--|
--7--7--7--7--7--7--7--7--|--7--7--7--7--7--7--7--7--|
--------------------------|--------------------------|


  E  E  E  E  E  E  E  E     E  E  E  E  E  E  E  E
--------------------------|--------------------------|
--------------------------|--------------------------|
--7--7--7--7--7--7--7--7--|--7--7--7--7--7--7--7--7--|
--7--7--7--7--7--7--7--7--|--7--7--7--7--7--7--7--7--|
--5--5--5--5--5--5--5--5--|--5--5--5--5--5--5--5--5--|
--5--5--5--5--5--5--5--5--|--5--5--5--5--5--5--5--5--|
--------------------------|--------------------------|


  E  E  E  E  E  E  E  E     E  E  E  E  E  E  E  E
--------------------------|--------------------------|
--------------------------|--------------------------|
--4--4--4--4--4--4--4--4--|--4--4--4--4--4--4--4--4--|
--4--4--4--4--4--4--4--4--|--4--4--4--4--4--4--4--4--|
--2--2--2--2--2--2--2--2--|--2--2--2--2--2--2--2--2--|
--2--2--2--2--2--2--2--2--|--2--2--2--2--2--2--2--2--|
--------------------------|--------------------------|


  E  E  E  E  E  E  E  E     E  E  E  E  E  E  E  E
--------------------------|--------------------------|
--------------------------|--------------------------|
--5--5--5--5--5--5--5--5--|--5--5--5--5--7--7--7--7--|
--5--5--5--5--5--5--5--5--|--5--5--5--5--7--7--7--7--|
--3--3--3--3--3--3--3--3--|--3--3--3--3--5--5--5--5--|
--3--3--3--3--3--3--3--3--|--3--3--3--3--5--5--5--5--|
--------------------------|--------------------------|

Outro Chorus
   E   E   E   E   E   E   E   E      E   E   E   E   E   E   E   E
----------------------------------|----------------------------------|
----------------------------------|----------------------------------|
----------------------------------|----------------------------------|
--14--14--14--14--14--14--14--14--|--14--17--17--17--17--16--16--16--|
---x---x---x---x---x---x---x---x--|---x---x---x---x---x---x---x---x--|
--12--12--12--12--12--12--12--12--|--12--15--15--15--15--14--14--14--|
----------------------------------|----------------------------------|


   E   E   E   E   E   E   E   E      E   E   E   E   E   E   E   E
----------------------------------|----------------------------------|
----------------------------------|----------------------------------|
----------------------------------|----------------------------------|
--12--12--12--12--12--12--12--12--|--12--16--16--16--16--17--17--17--|
---x---x---x---x---x---x---x---x--|---x---x---x---x---x---x---x---x--|
--10--10--10--10--10--10--10--10--|--10--14--14--14--14--15--15--15--|
----------------------------------|----------------------------------|


  E  E  E  E  E  E  E  E     E  E  E  E  E  E   E   E
--------------------------|----------------------------|
--------------------------|----------------------------|
--------------------------|----------------------------|
--9--9--9--9--9--9--9--9--|--9--7--7--7--9--9--10--10--|
--x--x--x--x--x--x--x--x--|--x--x--x--x--x--x---x---x--|
--7--7--7--7--7--7--7--7--|--7--5--5--5--7--7---8---8--|
--------------------------|----------------------------|


   E   E   E   E   E   E   E   E      E   E   E   E   E   E   E   E
----------------------------------|----------------------------------|
----------------------------------|----------------------------------|
----------------------------------|----------------------------------|
--10--10--10--10--10--10--10--10--|--10--10--10--10--12--12--12--12--|
---x---x---x---x---x---x---x---x--|---x---x---x---x---x---x---x---x--|
---8---8---8---8---8---8---8---8--|---8---8---8---8--10--10--10--10--|
----------------------------------|----------------------------------|


   E   E   E   E   E   E   E   E      E   E   E   E   E   E   E   E
----------------------------------|----------------------------------|
----------------------------------|----------------------------------|
----------------------------------|----------------------------------|
--14--14--14--14--14--14--14--14--|--14--17--17--17--17--16--16--16--|
---x---x---x---x---x---x---x---x--|---x---x---x---x---x---x---x---x--|
--12--12--12--12--12--12--12--12--|--12--15--15--15--15--14--14--14--|
----------------------------------|----------------------------------|


   E   E   E   E   E   E   E   E      E   E   E   E   E   E   E   E
----------------------------------|----------------------------------|
----------------------------------|----------------------------------|
----------------------------------|----------------------------------|
--12--12--12--12--12--12--12--12--|--12--16--16--16--16--17--17--17--|
---x---x---x---x---x---x---x---x--|---x---x---x---x---x---x---x---x--|
--10--10--10--10--10--10--10--10--|--10--14--14--14--14--15--15--15--|
----------------------------------|----------------------------------|


  E  E  E  E  E  E  E  E     E  E  E  E  E  E   E   E
--------------------------|----------------------------|
--------------------------|----------------------------|
--------------------------|----------------------------|
--9--9--9--9--9--9--9--9--|--9--7--7--7--9--9--10--10--|
--x--x--x--x--x--x--x--x--|--x--x--x--x--x--x---x---x--|
--7--7--7--7--7--7--7--7--|--7--5--5--5--7--7---8---8--|
--------------------------|----------------------------|


   E   E   E   E   E   E   E   E      E   E   E   E   E   E   E   E
----------------------------------|----------------------------------|
----------------------------------|----------------------------------|
----------------------------------|----------------------------------|
--10--10--10--10--10--10--10--10--|--10--10--10--10--12--12--12--12--|
---x---x---x---x---x---x---x---x--|---x---x---x---x---x---x---x---x--|
---8---8---8---8---8---8---8---8--|---8---8---8---8--10--10--10--10--|
----------------------------------|----------------------------------|

Outro Pt 2
  S S S S S S S S S S S S S S S S    S S S S S S S S S S S S S S S S
----------------------------------|----------------------------------|
----------------------------------|----------------------------------|
----------------------------------|----------------------------------|
----------------------------------|----------------------------------|
--7-7-7-7-7-7-7-7-7-7-7-7-7-7-7-7-|--5-5-5-5-5-5-5-5-5-5-5-5-5-5-5-5-|
----------------------------------|----------------------------------|
----------------------------------|----------------------------------|


  S S S S S S S S S S S S S S S S    S S S S S S S S S S S S S S S S
----------------------------------|----------------------------------|
----------------------------------|----------------------------------|
----------------------------------|----------------------------------|
----------------------------------|----------------------------------|
--2-2-2-2-2-2-2-2-2-2-2-2-2-2-2-2-|--3-3-3-3-3-3-3-3-3-3-3-3-3-3-3-3-|
----------------------------------|----------------------------------|
----------------------------------|----------------------------------|


  S S S S S S S S S S S S S S S S    S S S S S S S S S S S S S S S S
----------------------------------|----------------------------------|
----------------------------------|----------------------------------|
----------------------------------|----------------------------------|
----------------------------------|----------------------------------|
--7-7-7-7-7-7-7-7-7-7-7-7-7-7-7-7-|--5-5-5-5-5-5-5-5-5-5-5-5-5-5-5-5-|
----------------------------------|----------------------------------|
----------------------------------|----------------------------------|


  S S S S S S S S S S S S S S S S    S S S S S S S S S S S S S S S S
----------------------------------|----------------------------------|
----------------------------------|----------------------------------|
----------------------------------|----------------------------------|
----------------------------------|----------------------------------|
--2-2-2-2-2-2-2-2-2-2-2-2-2-2-2-2-|--3-3-3-3-3-3-3-3-3-3-3-3-3-3-3-3-|
----------------------------------|----------------------------------|
----------------------------------|----------------------------------|

Outro
        PM PM       PM PM       PM PM PM PM
   S  S S  S   S  S S  S   S  S S  S  S  S   S  S
--------------------------------------------------|
--------------------------------------------------|
--------------------------------------------------|
--------------------------------------------------|
--------------------------------------------------|
--12-13-------12-13-------12-13-------------12-13-|
--------0--0--------0--0--------0--0--0--0--------|


  PM PM       PM PM PM PM                   PM PM
  S  S   S  S S  S  S  S   S  S  S  S  S  S S  S
--------------------------------------------------|
--------------------------------------------------|
--------------------------------------------------|
--------------------------------------------------|
--------------------------------------------------|
--------12-13-------------12-13-12----------------|
--0--0--------0--0--0--0-----------15-13-12-0--0--|


        PM PM       PM PM       PM PM PM PM PM PM
   S  S S  S   S  S S  S   S  S S  S  S  S  S  S     Q    E  E  Q    Q
--------------------------------------------------|-----------------------|
--------------------------------------------------|-----------------------|
--------------------------------------------------|-----------------------|
--------------------------------------------------|-----------------------|
--------------------------------------------------|--3----5-----5----7----|
--12-13-------12-13-------12-13-------------------|--3----5-----5----7----|
--------0--0--------0--0--------0--0--0--0--0--0--|--1----3-----3----5----|


        PM PM       PM PM       PM PM PM PM
   S  S S  S   S  S S  S   S  S S  S  S  S   S  S
--------------------------------------------------|
--------------------------------------------------|
--------------------------------------------------|
--------------------------------------------------|
--------------------------------------------------|
--12-13-------12-13-------12-13-------------12-13-|
--------0--0--------0--0--------0--0--0--0--------|


  PM PM       PM PM PM PM                   PM PM
  S  S   S  S S  S  S  S   S  S  S  S  S  S S  S
--------------------------------------------------|
--------------------------------------------------|
--------------------------------------------------|
--------------------------------------------------|
--------------------------------------------------|
--------12-13-------------12-13-12----------------|
--0--0--------0--0--0--0-----------15-13-12-0--0--|


        PM PM       PM PM       PM PM PM PM PM PM
   S  S S  S   S  S S  S   S  S S  S  S  S  S  S     Q    E  E  Q    Q
--------------------------------------------------|-----------------------|
--------------------------------------------------|-----------------------|
--------------------------------------------------|-----------------------|
--------------------------------------------------|-----------------------|
--------------------------------------------------|--3----5-----5----7----|
--12-13-------12-13-------12-13-------------------|--3----5-----5----7----|
--------0--0--------0--0--------0--0--0--0--0--0--|--1----3-----3----5----|


  Q    E  E  Q    Q       W                   W
-----------------------|-------------------|-------------------||
-----------------------|-------------------|-------------------||
-----------------------|-------------------|-------------------||
-----------------------|--9----------------|--L----------------||
--3----5-----5----7----|--7----------------|--L----------------||
--3----5-----5----7----|--7----------------|--L----------------||
--1----3-----3----5----|--5----------------|--L----------------||


Duration Legend
---------------
W - whole
H - half
Q - quarter
E - 8th
S - 16th
T - 32nd
X - 64th
. - note dotted
|-n-|  - n-tuplets


Tablature Legend
----------------
L - tied note
x - dead note
g - grace note
(n) - ghost note
> - accentuded note
NH - natural harmonic
AH - artificial harmonic
TH - tapped harmonic
SH - semi harmonic
PH - pitch harmonic
h - hammer on
p - pull off
b - bend
br - bendRelease
pb - preBend
pbr - preBendRelease
brb - bendReleaseBend
\n/ - tremolo bar dip
\n - tremolo bar dive
-/n - tremolo bar Release up
/n\ - tremolo bar inverted dip
/n - tremolo bar return
-\n - tremolo bar Release down
S - shift slide
s - legato slide
/ -  slide into from below or out of upwards
\ -  slide into from above or out of downwards
~ - vibrato
W - wide vibrato
tr - trill
TP - tremolo picking
T - tapping
S - slap
P - pop
< - fade in
^ - brush up
v - brush down

            
            
Suggest correction
Creating personal tab
Creating personal tab
You can edit any tab online and save it as your Personal.

You can edit, replace or remove any tab part or add personal notes – all changes will be seen only by you.

Personal tabs can be accessed anytime from any device, even offline.
Learn more »
comments
print report bad tab
5 comments total. Showing first comments.
0 reply
craftyman2k5 10 Jan 06, 2009 03:21 AM

sweet, thanks for a good tab to an awsome song.

0 reply
craftyman2k5 10 Jan 06, 2009 03:22 AM

and making it work in drop d.

0 reply
guitarplayer-k6 66 Mar 09, 2009 09:56 AM

k so I have never tried to tune to a seven string guitar song... if I tune my E to B it should work? or can I just put it down to D? someone help me! hahaha

guest
You may want to rate the tab now too:
select rating
Wanna post a correction for this tab? Suggest correction