Oops, an error
Loading. Please wait.

Orgull De Classe Chords

48 views 9 this week
no commentswrite comment
1 2 3 4 5
3 more votes to show rating
add to favorites
launch autoscroll
font size
0
reset
transpose
0
reset
display chords
guitar tuner
Autoscroll
slow
fast
+/-
esc
set tempo
stop
Help us to improve Ultimate-Guitar.com Take our survey!
×
Volia posar els acords de la guitarra,
pero ja k es casi tota en baix..tmb posare el d baix..

G|--------------------------------------------------------
D|----------------------5-4-----5----------------5-4------
A|-------2-3-5--5-5-5-5-----5-3----2-3-2-3-5---5-----5----
E|-3-3-3-----------------------------------------------3--

weno..mas o menos,dandole los respectivos tokes suena bien,jejje
i asi toda la cansion asta k entra la guiatarra

i la guitarra seria asi:

C - G - L   B-C-D   C - G - L   D-C-B  (el B-C-D es con un solo golpe)


C
i una ma
G
m'acaricia
l
amb les duricies
B-C-D
k fa l'obra
C
i cop de porra
G
en mig dl nas
l
em torna al lloc
D-C-B
cuant estic fora

i despues seria el trozo raro k ace k es:

E|-------------------------------------------------------
B|------8-------10---8-----------------------------------
G|--5---7---7---9----7---7-------------------------------
D|--5---5---7---7----5---7---5---------------------------
A|--3-------5------------5---5---------------------------
E|---------------------------3---------------------------


i vuelve el bajo a acer lo dl principio


i al otro estribillo la guitarra igual k antes,
i ya cuando canta i tokan todos los acordes son:
G - D - C - D
Suggest correction
Give kudos to tab author, rate the tab!
1 2 3 4 5
comments
print report bad tab
guest
You may want to rate the tab now too:
select rating
Wanna post a correction for this tab? Suggest correction