Oops, an error
Loading. Please wait.

Demonic Incarnate Tab

version 2
version 2

Whole song

  • This tab is accurate and shows the 2 guitars.
7 views 1 this week
no commentswrite comment
1 2 3 4 5
3 more votes to show rating
add to favorites
launch autoscroll
font size
0
reset
how to read this tab
guitar tuner
Autoscroll
slow
fast
+/-
esc
set tempo
stop
Help us to improve Ultimate-Guitar.com Take our survey!
×
Author
Difficulty
Tuning
intermediate
C F A# D# G C
About this tab version
This tab is accurate and shows the 2 guitars. Was this info helpful? Yes No
INCANTATION: DEMONIC INCARNATE
                

tuning: C standard

  riff A (guitar I)
C |-----------------------------------------------------------------------------------|
G |-----------------------------------------------------------------------------------|
D#|.-10-10-10-10-10-10-10-10-6-6-6-6-6-6-6-6-8-8-8-8-9-9-9-9-9-9-9-9-5-5-5-5-5-5-5-5--|
A#|.--8--8--8--8--8--8--8--8-4-4-4-4-4-4-4-4-6-6-6-6-7-7-7-7-7-7-7-7-3-3-3-3-3-3-3-3--|
F |---8--8--8--8--8--8--8--8-4-4-4-4-4-4-4-4-6-6-6-6-7-7-7-7-7-7-7-7-3-3-3-3-3-3-3-3--|
C |-----------------------------------------------------------------------------------|
  |
  |(guitar II)
C |----------------------------------------------------------------------------------|
G |--10-10-10-10-10-10-10-10-6-6-6-6-6-6-6-6-8-8-8-8-9-9-9-9-9-9-9-9-5-5-5-5-5-5-5-5-|
D#|.-10-10-10-10-10-10-10-10-6-6-6-6-6-6-6-6-8-8-8-8-9-9-9-9-9-9-9-9-5-5-5-5-5-5-5-5-|
A#|.--8--8--8--8--8--8--8--8-4-4-4-4-4-4-4-4-6-6-6-6-7-7-7-7-7-7-7-7-3-3-3-3-3-3-3-3-|
F |----------------------------------------------------------------------------------|
C |----------------------------------------------------------------------------------|
  |
  |riff  A contd X 2
C |--------------------------------------------------------------------------|
G |--------------------------------------------------------------------------|
D#|-10-10-10-10-10-10-10-10-6-6-6-6-6-6-6-6-5-5-5-5-5-5-5-5-8-8-8-8-8-8-8-8-.|
A#|--8--8--8--8--8--8--8--8-4-4-4-4-4-4-4-4-3-3-3-3-3-3-3-3-6-6-6-6-6-6-6-6-.|
F |--8--8--8--8--8--8--8--8-4-4-4-4-4-4-4-4-3-3-3-3-3-3-3-3-6-6-6-6-6-6-6-6--|
C |--------------------------------------------------------------------------|
  |
  |(guitar II)
C |--------------------------------------------------------------------------|
G |-10-10-10-10-10-10-10-10-6-6-6-6-6-6-6-6-5-5-5-5-5-5-5-5-8-8-8-8-8-8-8-8--|
D#|-10-10-10-10-10-10-10-10-6-6-6-6-6-6-6-6-5-5-5-5-5-5-5-5-8-8-8-8-8-8-8-8-.|
A#|--8--8--8--8--8--8--8--8-4-4-4-4-4-4-4-4-3-3-3-3-3-3-3-3-6-6-6-6-6-6-6-6-.|
F |--------------------------------------------------------------------------|
C |--------------------------------------------------------------------------|

  riff B x 2
C |--------------------------------------------------------------------------|
G |--------------------------------------------------------------------------|
D#|--------------------------------------------------------------------------|
A#|--------------------------7-7-7-------------5-5-5-------------3-3-3-5-5-5-|
F |-------5-5-5--------5-5-5-------8-8-8-3-3-3-------6-6-6-5-5-5-------------|
C |-3-3-3-------6-6-6--------------------------------------------------------|
  |
  |riff B contd                                                                  1st time                    
C |--------------------------------------------------------------|-----------------------|
G |--------------------------------------------------------------|-----------------------|
D#|.-------------------------------------------------------------|----------------------.|
A#|.-------------------------7-7-7-8-8-8-------8-8-8-9-9-9-------|-9-9-9-10-10-10-------.|
F |-------5-5-5-------5-5-5-------------7-7-7-------------8-8-8--|----------------9-9-9--|
C |-3-3-3-------6-6-6--------------------------------------------|-----------------------|
  |
  |riff B contd       2nd time 
C |--------------------------|   
G |--------------------------|
D#|-------------------------.|
A#|-10-10-10-9-9-9----------.|
F |----------------10-10-10--|
C |--------------------------|

  fill
C |---------------|
G |---------------|
D#|---------------|
A#|---------------|
F |---h-p-h-p-h-p-|
C |-1-3-1-3-1-3-1-|

  riff C                                                                           
C |----------------------------------------------------------------|---------------------------|
G |----------------------------------------------------------------|---------------------------|
D#|----------------------------------------------------------------|---------------------------|
A#|----------------------------------------------------------------|---------------------------|
F |-----------------------------------h-p-h-p-h-p------------------|---------------h-p-h-p-h-p-|
C |--7--6--1-1-1-1-1--7--6--2~--1~--2-4-2-4-2-4-2--7--6--1-1-1-1-1-|-7--6--2~-6~-2-4-2-4-2-4-2-|
  |        .........                                     .........
  |
  |riff C contd    
C |----------------------------------------------------------------|------------|
G |----------------------------------------------------------------|------------|
D#|.---------------------------------------------------------------|------------|
A#|.---------------------------------------------------------------|------------|
F |-----------------------------------h-p-h-p-h-p------------------|------------|
C |--7--6--1-1-1-1-1--7--6--2~--1~--2-4-2-4-2-4-2--7--6--1-1-1-1-1-|-7--6--2~-6-|
           .........                                     .........
           
  riff D X 3 
C |---------------------------------------------|
G |---------------------------------------------|
D#|.-------------------------------------------.|
A#|.---6--7-6-------------------6--7-6---------.|
F |-5--4--5-4-7--8--7-8-4-7--5--4--5-4-7--8--4--|
C |-3---------5--6--5-6-2-5--3---------5--6--2--|

  riff E X 5 (guitar I)         x 5
C |---------------------------------|
G |---------------------------------|
D#|.-------------------------------.|
A#|.-------------------------------.|
F |-4-2------------4-2--------------|
C |-2---3-2-5-4~---2---3-2-5-4-0-2--|
  |
  |(guitar II) first time only------|                             x 4
C |---------------------------------|--------------------------------|
G |---------------------------------|--------------------------------|
D#|---------------------------------|.------------------------------.|
A#|---------------------------------|.------------------------------.|
F |-5-4-(let ring)-4----------------|-4-2------------4-2-------------|
C |-3-2------------2----------------|-2---3-2-5-4~---2---3-2-5-4-0-2-|

  riff F (guitar II) X 7
C |------------------------------------------------------|      
G |------------------------------------------------------|
D#|.----------------------------------------------------.|
A#|.2-------------------------------------------------2-.|   
F |-2-----------2~----------------------4~------------2--|
C |-0---------------3--4--3~--------------------2--3--0--|
  |                                               |------do not play this at end of song
  |
  |riff F(guitar I)                    x 2                  x 5
C |---------------------------------------|--------------------|
G |---------------------------------------|--------------------|
D#|.-------------------------------------.|.------------------.|
A#|.2-----------------------------------2.|.-\5~--\9-8~-9-8~--.|
F |-2----2~---------------4~------------2-|--------------------|
C |-0--------3--4--3~-------------2--3--0-|--------------------|

  riff E X 4

  riff G (guitar I & II) x 2  riff G1              X 2
C |-------------------------|-------------------------|
G |-------------------------|-------------------------|
D#|.-----------------------.|.-----------------------.| X 3
A#|.-----------------------.|.-----------------------.|
F |-----2-----3-----2-----2-|-----4-----6-----4-----6-|
C |-3-2---3-2---3-2---3-2---|-5-4---5-4---5-4---5-4---|
  |
  |(guitar II)first time only
C |---------------------------|
G |---------------------------|
D#|---------------------------|
A#|---------------------------|
F |-4-(let-ring)-5-(let-ring)-|
C |-2------------3------------|

  (guitar I only. guitar II plays G & G1)  
  riff H                  X 2  riff H1                X 2
C |---------------------------|--------------------------|
G |---------------------------|--------------------------|
D#|.-----4-----6-----4-----6-.|.-----6-----8-----6----8-.| 
A#|.-5-4---5-4---5-4---5-4---.|.-7-6---7-6---7-6--7-6---.| X 2
F |---------------------------|--------------------------|
C |---------------------------|--------------------------|

  riff F X 2


Riff order:
riff a+a1 x2
riff b+b1 x2
fill
riff c    x2
riff a+a1 x1
riff b+b1 x2
riff d    x3
riff e    x5
riff f    x7
riff e    x4
riff g    x2
riff g+g1 x3
riff h+h1 x2(with riff g+g1 underneath)
riff f    x2



************************************

~ = heavy vibrato
. = palm muting 

************************************
Suggest correction
Give kudos to tab author, rate the tab!
1 2 3 4 5
comments
print report bad tab
guest
You may want to rate the tab now too:
select rating
Wanna post a correction for this tab? Suggest correction