Oops, an error
Loading. Please wait.

Reborn Tab

41 views 1 this week
no commentswrite comment
1 2 3 4 5
please rate
add to favorites
launch autoscroll
font size
0
reset
how to read this tab
guitar tuner
Tab Pro tools
  • play this tab
  • loop segment
  • change instrument
  • show fretboard
  • metronome
×
Best way to learn
"Reborn"
Autoscroll
slow
fast
+/-
esc
set tempo
stop
Contributor
Difficulty
intermediate
Inception - Reborn, 2011 (Composing) 
Guitar 1: Axel Wazzap
Guitar 2: Bastian Alexis
Vocals: Camila Herrera
Drum: Romina

Album: Mixed Dreams

h: Hammer On
p: Pull Of
x: Mute Palm
x2: repeat two times
X2: repeat the entire verse 2 two times

Dramatic Intro:

|---------------------------------|
|---------------------------------|
|---------4---3-------------------|
|-3-------4---1----2--------------|
|-3-------2---1----2--------------|
|-1----------------0--------------| x2

Verse 1

|--------------------------------------------------------------------------|
|--------------------------------------------------------------------------|
|--------------------------------------------------------------------------|
|-------2--------2-----2--------3--------3-----3--------2--------2-----2---|
|-------2--------2-----2--------3--------3-----3--------2--------2-----2---|
|-0--0-----0--0-----0-----0--0-----0--0-----0-----0--00----0--0-----0------|
  x  x     x  x     x     x  x     x  x     x     x  xx    x  x     x   

|--------------------------------------------------------------------------|
|--------------------------------------------------------------------------|
|--------------------------------------------------------------------------|
|--------------2--3--2-----------2--------2-----2-2hm3--------3-----3-3-3-2|
|-----2--3--5-----------5--------2--------2-----2-2hm3--------3-----3-3-3-2|
|--0-----------------------0--0-----0--0-----0----------0--0-----0---------|
   x  x  x  x  x  x  x  x  x  x     x  x     x          x  x     x

|------------------------------------------------------------------------|
|------------------------------------------------------------------------|
|------------------------------------------------------------------------|
|--------2---------2-----3--------3--------3-----------------------------|
|--------2---------2-----3--------3--------3-----------------------------|
|--0--0------0--0-----0-----0--0-----0--0-----0-0h2h3h5h3h2h0------------|X2
   x  x      x  x     x     x  x     x  x 

Chorus

|------------------------------------------------------------------------|
|------------------------------------------------------------------------|
|----------------4-----3-----------------------4----3--------------------|
|--2------3------4-----3-----2-----2-----3-----4----3----2---------------|
|--2------3------2-----1-----2-----2-----3-----2----1----2---------------|
|--0------1------------------0-----0-----1---------------0---------------|x2

Verse 2


|--------------------------------------------------------------------------|
|--------------------------------------------------------------------------|
|--------------------------------------------------------------------------|
|-------2--------2-----2--------3--------3-----3--------2--------2-----2---|
|-------2--------2-----2--------3--------3-----3--------2--------2-----2---|
|-0--0-----0--0-----0-----0--0-----0--0-----0-----0--00----0--0-----0------|
  x  x     x  x     x     x  x     x  x     x     x  xx    x  x     x   

|--------------------------------------------------------------------------|
|--------------------------------------------------------------------------|
|--------------------------------------------------------------------------|
|--------------2--3--2-----------2--------2-----2-2hm3--------3-----3-3-3-2|
|-----2--3--5-----------5--------2--------2-----2-2hm3--------3-----3-3-3-2|
|--0-----------------------0--0-----0--0-----0----------0--0-----0---------|
   x  x  x  x  x  x  x  x  x  x     x  x     x          x  x     x

|------------------------------------------------------------------------|
|------------------------------------------------------------------------|
|------------------------------------------------------------------------|
|--------2---------2-----3--------3--------3-----------------------------|
|--------2---------2-----3--------3--------3-----------------------------|
|--0--0------0--0-----0-----0--0-----0--0-----0-0h2h3h5h3h2h0------------|X2
   x  x      x  x     x     x  x     x  x 

Chorus 2

|------------------------------------------------------------------------|
|------------------------------------------------------------------------|
|----------------4-----3-----------------------4----3--------------------|
|--2------3------4-----3-----2-----2-----3-----4----3----2---------------|
|--2------3------2-----1-----2-----2-----3-----2----1----2---------------|
|--0------1------------------0-----0-----1---------------0---------------|x2

Pre-Solo

|------------------------------------|
|------------------------------------|
|------------------------------------|
|-------2--2--2-----3--3--3h5--5h7---|
|-------2--2--2-----3--3--3h5--5h7---|
|---0------------0-------------------|
    x            x

Solo 1

|--5-7-8-5-7-8--------------------5-7-8-5-7-8--------------------------|
|--------------5-5-8-7-5-8-5------------------5-5-8-7-5-8-7------------|
|----------------------------------------------------------------------|
|----------------------------------------------------------------------|
|----------------------------------------------------------------------|
|----------------------------------------------------------------------|

|--5-7-8-5-7-8-5-8-7-9-10-7-9-10-7-10-9-11-12-9-11-12------------------|
|-----------------------------------------------------9-9-12-11-9-12---|
|--------------------------------------------------------------------9-|
|----------------------------------------------------------------------|
|----------------------------------------------------------------------|
|----------------------------------------------------------------------|X2

Solo 2

|--------5-7h8-------5-7h8--------------7-9h10---------7-9h10----------|
|--5-7h8-------5-7h8-------5----7-9h10---------7-9h10---------7--------|
|----------------------------------------------------------------------|
|----------------------------------------------------------------------|
|----------------------------------------------------------------------|
|----------------------------------------------------------------------|x2

|----5-7-8-5-7-8-------------------------------------------------------|
|----------------5-7-8-5-7-8-------------------------------------------|
|----------------------------5-7-8-5-7-8-------------------------------|
|----------------------------------------5-7-8-5-7-8----------------2--|
|----------------------------------------------------5-7-8-5-7-8----2--|
|----------------------------------------------------------------5--0--|

Outro

|--------------------------------------------------------------------------|
|--------------------------------------------------------------------------|
|--------------------------------------------------------------------------|
|-------2--------2-----2--------3--------3-----3--------2--------2-----2---|
|-------2--------2-----2--------3--------3-----3--------2--------2-----2---|
|-0--0-----0--0-----0-----0--0-----0--0-----0-----0--00----0--0-----0------|
  x  x     x  x     x     x  x     x  x     x     x  xx    x  x     x   

|--------------------------------------------------------------------------|
|--------------------------------------------------------------------------|
|--------------------------------------------------------------------------|
|--------------2--3--2-----------2--------2-----2-2hm3--------3-----3-3-3-2|
|-----2--3--5-----------5--------2--------2-----2-2hm3--------3-----3-3-3-2|
|--0-----------------------0--0-----0--0-----0----------0--0-----0---------|
   x  x  x  x  x  x  x  x  x  x     x  x     x          x  x     x

|------------------------------------------------------------------------|
|------------------------------------------------------------------------|
|------------------------------------------------------------------------|
|--------2---------2-----3--------3--------3-------------------2-2-2-----|
|--------2---------2-----3--------3--------3-------------------2-2-2-----|
|--0--0------0--0-----0-----0--0-----0--0-----0-0h2h3h5h3h2h0--0-0-0-----|
   x  x      x  x     x     x  x     x  x    

|------------------------------------------------------------------------|
|------------------------------------------------------------------------|
|----------------4-----3-----------------------4----3--------------------|
|--2------3------4-----3-----2-----2-----3-----4----3----2-----------2---|
|--2------3------2-----1-----2-----2-----3-----2----1----2-----------2---|
|--0------1------------------0-----0-----1---------------0---5-3-2-3-0---|

|--------------------------------|
|--------------------------------|
|--------------------------------|
|--2-2-2-2-----2-----------------|
|--2-2-2-2-----2-----------------|
|--0-0-0-0-----0-----------------|


comments
We did not receive enough feedback on this tab! Please rate:
print report bad tab
1 2 3 4 5
I want to post or [tab]
guest
You may want to rate the tab now too:
select rating
Please do not post tabs as comments. Select "correction" instead!