Oops, an error
Loading. Please wait.

Still A Friend Of Mine Bass Tab

22,135 views 15 this week
no commentswrite comment
1 2 3 4 5
excellent!
x 3
add to favorites
launch autoscroll
font size
0
reset
guitar tuner
Autoscroll
slow
fast
+/-
esc
set tempo
stop
Help us to improve Ultimate-Guitar.com Take our survey!
×
Intro			   Chorus

G:|-----------------||-----5-6-7-------|--------4--------|
D:|-----------------||------------7----|-----6-----6-----|
A:|--------------2/-||--5-----------5--|--4-----------4--|
E:|-----------------||-----------------|-----------------|

G:|-----3-4-5-------|--------2--------||
D:|------------5----|-----4-----4-----||
A:|--3-----------3--|--2-----------2--||
E:|-----------------|-----------------||

Bridge

G:|------5---3----5-|------4---2----4-||
D:|----3---3----3---|----2---2----2---||
A:|--1--------1-----|--0--------0-----||
E:|-----------------|-----------------||

Verse x2

G:|-----------------|-----------------|-------4---4-6---|
D:|-------2---2-4---|-------2---2-4---|-----6---6-------|
A:|-----4---4-------|-----4---4-------|-4-4-------------|
E:|-2-2-------------|-2-2-------------|-----------------|

G:|-------4---6-4---|-----------------|-----------------|
D:|-----6---6-----6-|-------5---5-7---|-------5---5-7---|
A:|-4-4-------------|-----7---7-------|-----7---7-------|
E:|-----------------|-5-5-------------|-5-5-------------|

G:|-----------------|-----------------||
D:|-------7---9-7---|-5---------------||
A:|-----9---9-------|-----7-5--5------||
E:|-7-7-------------|---7--------0-1--||

Middle 8

G:|-----------------|-----------------|-----------------|
D:|-----------------|-------------7---|-----------------|
A:|-----7-9-7-9-7---|-----7-9-7-9-----|-----7-9-7-9-7---|
E:|-5-5-------------|-5-5-------------|-5-5-------------|

G:|-----------------||
D:|-----------7-----||
A:|-----7-9-7---9-7-||
E:|-5-5-------------||

Riff 2
>From Bridge
G:|------------|-----7---5----5--|----------------------|
D:|------------|---5---5----5----|----9--7---7-7--------|
A:|------7-5-4-|-3--------3------|--7--7----7---77-55-44|
E:|------------|--------------023|5-------5-------------|

G:|----7---5----5---|------------5-7-5-----||
D:|--5---5----5-----|--5-7--7--7-------7---||
A:|3--------3----3--|-7----7--5----------5-||
E:|---------------02|5--------------------0||
Suggest correction
Give kudos to tab author, rate the tab!
1 2 3 4 5
comments
print report bad tab
guest
You may want to rate the tab now too:
select rating
Please do not post tabs as comments. Select "correction" instead!