Oops, an error
Loading. Please wait.

11 Am tab

version 8
version 8

Whole song

Interactive

by Incubus
395 views 3 this week
no commentswrite comment
1 2 3 4 5
x 4
add to favorites
×
Save as Personal and add changes to this tab that will be seen only by you. Learn more ›
×
You can save this tab as Personal to edit and correct it or add notes. All changes will be seen only by you. Learn more »
launch autoscroll
font size
0
reset
how to read this tab
guitar tuner
edit
Autoscroll
slow
fast
+/-
esc
set tempo
stop
About this tab version
This is a version 100% correct. Was this info helpful? Yes No
Incubus - 11 Am                                       


Guitar 1
                                    2x                                   
E||---------------------------------||----------------------------------|
B||---------------------------------||----------------------------------|
G||*---------4--4-4----------------*||---------4--4-4-------0-----------|
D||*---------2--2-2--------2-0---0-*||---------2--2-2-----4---0-2-0---0-|
A||---2------2--2-2----3------------||--2------2--2-2---5-----------3---|
E||---0--0-0-0--0-0--3---3-----3----||--0--0-0-0--0-0-5-----------------|


                                                                     
|--------------------------------|----------------------------------|
|--------------------------------|----------------------------------|
|*---------4--4-4----------------|---------4--4-4-------0-----------|
|*---------2--2-2--------2-0---0-|---------2--2-2-----4---0-2-0---0-|
|---2------2--2-2----3-----------|--2------2--2-2---5-----------3---|
|---0--0-0-0--0-0--3---3-----3---|--0--0-0-0--0-0-5-----------------|


                                                               
-------------------------------|-----------------------------||
-------------------------------|-----------------------------||
---------4--4-4----------------|--4---4-4--4-4--------------*||
---------2--2-2--------2-0---0-|--2---2-2--2-2--2--2-2--2-2-*||
--2------2--2-2----3-----------|--0---0-0--0-0--3--3-3--3-3--||
--0--0-0-0--0-0--3---3-----3---|----------------3--3-3--3-3--||


                               2x                             
-------------------------------||----------------------------|
-------------------------------||----------------------------|
*-------4--4-4----------------*||--4---4-4--4-4--------------|
*-------2--2-2--------2-0---0-*||--2---2-2--2-2--2--2-2--2-2-|
---2----2--2-2----3------------||--0---0-0--0-0--3--3-3--3-3-|
---0----0--0-0--3---3-----3----||----------------3--3-3--3-3-|


                                2x                             
|-------------------------------||----------------------------|
|-------------------------------||----------------------------|
|*-------4--4-4----------------*||----------------------------|
|*-------2--2-2--------2-0---0-*||--4---4-4--4-4--2--2-2--2-2-|
|---2----2--2-2----3------------||--5---5-5--5-5--3--3-3--3-3-|
|---0----0--0-0--3---3-----3----||--5---5-5--5-5--3--3-3--3-3-|


                                                            
-----------------------------|-----------------------------|
--0---0-0---0--0-0-0-0-0-0-0-|--0---0-0---0--0-0-0-0-0-0-0-|
--4---4-4---4--4-4-4-4-4-4-4-|--4---4-4---4--4-4-4-4-4-4-4-|
--2---2-2---2--2-2-2-2-2-2-2-|--2---2-2---2--2-2-2-2-2-2-2-|
--0---0-0---0--0-0-0-0-0-0-0-|--3---3-3---3--3-3-3-3-3-3-3-|
-----------------------------|-----------------------------|


                                                     
---------------------------|------------------------|
--0---0-0---0--0-0-0-0-----|------------------------|
--4---4-4---4--4-4-4-4--0--|----0--0----------------|
--2---2-2---2--2-2-2-5--5--|----5--5--3----3--3--3--|
--0---0-0---0--0-0-0-3--5--|----5--5--3----3--3--3--|
------------------------3--|----3--3--1----1--1--1--|


                                                                     
|--------------------------------|----------------------------------|
|--------------------------------|----------------------------------|
|*---------4--4-4----------------|---------4--4-4-------0-----------|
|*---------2--2-2--------2-0---0-|---------2--2-2-----4---0-2-0---0-|
|---2------2--2-2----3-----------|--2------2--2-2---5-----------3---|
|---0--0-0-0--0-0--3---3-----3---|--0--0-0-0--0-0-5-----------------|


                                                               
-------------------------------|-----------------------------||
-------------------------------|-----------------------------||
---------4--4-4----------------|--4---4-4--4-4--------------*||
---------2--2-2--------2-0---0-|--2---2-2--2-2--2--2-2--2-2-*||
--2------2--2-2----3-----------|--0---0-0--0-0--3--3-3--3-3--||
--0--0-0-0--0-0--3---3-----3---|----------------3--3-3--3-3--||


                               2x                             
-------------------------------||----------------------------|
-------------------------------||----------------------------|
*-------4--4-4----------------*||--4---4-4--4-4--------------|
*-------2--2-2--------2-0---0-*||--2---2-2--2-2--2--2-2--2-2-|
---2----2--2-2----3------------||--0---0-0--0-0--3--3-3--3-3-|
---0----0--0-0--3---3-----3----||----------------3--3-3--3-3-|


                                2x                             
|-------------------------------||----------------------------|
|-------------------------------||----------------------------|
|*-------4--4-4----------------*||----------------------------|
|*-------2--2-2--------2-0---0-*||--4---4-4--4-4--2--2-2--2-2-|
|---2----2--2-2----3------------||--5---5-5--5-5--3--3-3--3-3-|
|---0----0--0-0--3---3-----3----||--5---5-5--5-5--3--3-3--3-3-|


                                                            
-----------------------------|-----------------------------|
--0---0-0---0--0-0-0-0-0-0-0-|--0---0-0---0--0-0-0-0-0-0-0-|
--4---4-4---4--4-4-4-4-4-4-4-|--4---4-4---4--4-4-4-4-4-4-4-|
--2---2-2---2--2-2-2-2-2-2-2-|--2---2-2---2--2-2-2-2-2-2-2-|
--0---0-0---0--0-0-0-0-0-0-0-|--3---3-3---3--3-3-3-3-3-3-3-|
-----------------------------|-----------------------------|


                                                     
---------------------------|------------------------|
--0---0-0---0--0-0-0-0-----|------------------------|
--4---4-4---4--4-4-4-4--0--|----0--0----------------|
--2---2-2---2--2-2-2-5--5--|----5--5--3----3--3--3--|
--0---0-0---0--0-0-0-3--5--|----5--5--3----3--3--3--|
------------------------3--|----3--3--1----1--1--1--|


                                                                     
|--------------------------------|----------------------------------|
|--------------------------------|----------------------------------|
|*---------4--4-4----------------|---------4--4-4-------0-----------|
|*---------2--2-2--------2-0---0-|---------2--2-2-----4---0-2-0---0-|
|---2------2--2-2----3-----------|--2------2--2-2---5-----------3---|
|---0--0-0-0--0-0--3---3-----3---|--0--0-0-0--0-0-5-----------------|


                                                               
-------------------------------|-----------------------------||
-------------------------------|-----------------------------||
---------4--4-4----------------|--4---4-4--4-4--------------*||
---------2--2-2--------2-0---0-|--2---2-2--2-2--2--2-2--2-2-*||
--2------2--2-2----3-----------|--0---0-0--0-0--3--3-3--3-3--||
--0--0-0-0--0-0--3---3-----3---|----------------3--3-3--3-3--||


                                                                         
------------------------|-----------------------|-----------------------|
------------------------|-----------------------|-----------------------|
*--0---0-x-0-0----------|--0---0-x-0-0----------|--0---0-x-0-0----------|
*--5---5-x-5-3----------|--5---5-x-5-3----------|--5---5-x-5-3----------|
---5---5-x-5-3----------|--5---5-x-5-3----------|--5---5-x-5-3----------|
---3---3-x-3-1----------|--3---3-x-3-1----------|--3---3-x-3-1----------|


                                                     
------------------------||--------------------------|
------------------------||--------------------------|
--0---0-x-0-0----------*||--1--1--1--1--1--1--1--1--|
--5---5-x-5-3----------*||--2--2--2--2--2--2--2--2--|
--5---5-x-5-3-----------||--2--2--2--2--2--2--2--2--|
--3---3-x-3-1-----------||--0--0--0--0--0--0--0--0--|


                                                                     
|--------------------------------|----------------------------------|
|--------------------------------|----------------------------------|
|*---------4--4-4----------------|---------4--4-4-------0-----------|
|*---------2--2-2--------2-0---0-|---------2--2-2-----4---0-2-0---0-|
|---2------2--2-2----3-----------|--2------2--2-2---5-----------3---|
|---0--0-0-0--0-0--3---3-----3---|--0--0-0-0--0-0-5-----------------|


                                                               
-------------------------------|-----------------------------||
-------------------------------|-----------------------------||
---------4--4-4----------------|--4---4-4--4-4--------------*||
---------2--2-2--------2-0---0-|--2---2-2--2-2--2--2-2--2-2-*||
--2------2--2-2----3-----------|--0---0-0--0-0--3--3-3--3-3--||
--0--0-0-0--0-0--3---3-----3---|----------------3--3-3--3-3--||


                     
--0----------------||
--0----------------||
--4----------------||
--2----------------||
--2----------------||
--0----------------||
Suggest correction
Creating personal tab
Creating personal tab
You can edit any tab online and save it as your Personal.

You can edit, replace or remove any tab part or add personal notes – all changes will be seen only by you.

Personal tabs can be accessed anytime from any device, even offline.
Learn more »
comments
print report bad tab
guest
You may want to rate the tab now too:
select rating
Wanna post a correction for this tab? Suggest correction