Oops, an error
Loading. Please wait.

A Certain Shade Of Green bass

version 2
version 2

Whole song

Interactive

by Incubus
2,824 views 3 this week
1 commentread comment
1 2 3 4 5
2 more votes to show rating
add to favorites
×
Save as Personal and add changes to this tab that will be seen only by you. Learn more ›
×
You can save this tab as Personal to edit and correct it or add notes. All changes will be seen only by you. Learn more »
launch autoscroll
font size
0
reset
guitar tuner
edit
Autoscroll
slow
fast
+/-
esc
set tempo
stop
Author
-------------------------------------------------------------------------------
	A Certain Shade of Green - Incubus
-------------------------------------------------------------------------------

Tuning: Standard

Intro
G|-------------|
D|-------------|
A|-11-11-11-11-|-----------------------------------------These are ones  
E|-------------|                                    throughout the whole song
                                                           ^  ^  ^  ^
G|---------------------------------------------------------------------|
D|---------------------------------------------------------------------|
A|-5555---5555---6666-5555---55-8-6-5-3-2222---2222---22---11-11-11-11-|
E|---------------------------------------------------------------------|x3

Verse
G|-----------------------5-------|
D|-------------------------------|
A|---3---------------------------|
E|-0---3-0--00x0x00x0x0x0-0x0x0x-|x8
   S S S S  SSLSLSSLSLSLSPSLSLSL

Chorus
G|---------------------------------------------------------------------|
D|---------------------------------------------------------------------|
A|-5555---5555---6666-5555---55-8-6-5-3-2222---2222---22---11-11-11-11-|
E|---------------------------------------------------------------------|x2

Verse
G|-----------------------5-------|
D|-------------------------------|
A|---3---------------------------|
E|-0---3-0--00x0x00x0x0x0-0x0x0x-|x8
   S S S S  SSLSLSSLSLSLSPSLSLSL

Chorus
G|---------------------------------------------------------------------|
D|---------------------------------------------------------------------|
A|-5555---5555---6666-5555---55-8-6-5-3-2222---2222---22---11-11-11-11-|
E|---------------------------------------------------------------------|x2

Bridge
G|---------------------------------| |-----------------------------|
D|---------------------------76-65-| |-----------------------76-65-|
A|-5/6--7--7-----5-5---4---3-------| |---7-------5-5---4---3-------|
E|-----------0-------0---0---------| |-0-----0-------0---0---------|x5

G|--------------------------------| R |--------------------------------|
D|--------------------------------| E |--------------------------------|
A|-1~--1~--1~--1~--1~--1~--1~--1~-| S |-5-3-2-2222222222---11-11-11-11-|
E|--------------------------------| T |--------------------------------|

Chorus
G|---------------------------------------------------------------------|
D|---------------------------------------------------------------------|
A|-5555---5555---6666-5555---55-8-6-5-3-2222---2222---22---11-11-11-11-|
E|---------------------------------------------------------------------|x2

Repeat the double ones on the A until fade out>

| L  left hand slap
| S  slap
| P  pop
| /  slide up
| \  slide down
| h  hammer-on
| p  pull-off
| ~  let note ring
| +  harmonic
| x  Mute note
===============================================================================

Suggest correction
Creating personal tab
Creating personal tab
You can edit any tab online and save it as your Personal.

You can edit, replace or remove any tab part or add personal notes – all changes will be seen only by you.

Personal tabs can be accessed anytime from any device, even offline.
Learn more »
Give kudos to tab author, rate the tab!
1 2 3 4 5
comments
print report bad tab
1 comment total.
0 reply
xxxxChrisTxxxx [tm] 10,215 Oct 04, 2014 03:26 AM

I think the verse starts...

G|------------|
D|------------|
A|-----5------|
E|-0-3---3-0--|


And bridge is more like.....
G|------------------------------------|
D|------------------------------7--6--|
A|-4/8--7\-------5-5---4-4------------|
E|---------0-0-0-----0-----3-5-5-4----|

guest
You may want to rate the tab now too:
select rating
Wanna post a correction for this tab? Suggest correction