Oops, an error
Loading. Please wait.

Agoraphobia tab

version 4
version 4

Whole song

Interactive

by Incubus
173 views 1 this week
no commentswrite comment
1 2 3 4 5
3 more votes to show rating
add to favorites
×
Save as Personal and add changes to this tab that will be seen only by you. Learn more ›
×
You can save this tab as Personal to edit and correct it or add notes. All changes will be seen only by you. Learn more »
launch autoscroll
font size
0
reset
how to read this tab
guitar tuner
edit
Autoscroll
slow
fast
+/-
esc
set tempo
stop
Song-Agoraphobia
Band-Incubus


Intro
E|-------------------|---------------------|----------------|----------------------|
B|-----0-------------|----0----------------|----0-----------|----0-----------------|
D|-------2---------2-|------2-----2-----2--|------2-------2-|------2---------------|
G|-----------------3-|------------3-----4--|--------------3-|----------------------|
A|-------------------|---------------------|----------------|---------3-3-4-4-3----|
E|--0-------3---3----|--0------3-----4-----|--0-----3---3---|--0------3-3-4-4-3----|


Verse(0:08)(x2)
E|---------------|------------------|---------------|------------------------------|
B|----0----------|----0-------------|----0----------|----0-------------------------|
D|------2------2-|------2----2----2-|------2------2-|------2-----------------------|
G|-------------3-|-----------3----4-|-------------3-|------------------------------|
A|---------------|------------------|---------------|----------3-3-4-4-3-----------|
E|--0-----3--3---|--0------3----4---|--0-----3--3---|--0-------3-3-4-4-3-----------|
(0:24)
E|---------------------|---------------------------|----------------------|----------------------|
B|---------------------|---------------------------|----------------------|----------------------|
D|--------4-------2----|--------4---------2------2-|--------4-------2-----|------4---------------|
G|--------2-------3----|--------2---------3------4-|--------2-------3-----|------2---------------|
A|-----0---------------|-----0---------------------|-----0----------------|----0----3-3-4-4-3----|
E|--0--------3--3----3-|--0---------3--3------4----|--0---------3--3----3-|--0------3-3-4-4-3----|


E|---------------------|---------------------------|----------------------|----------------------|
B|---------------------|---------------------------|----------------------|----------------------|
D|--------4-------2----|--------4---------2------2-|--------4-------2-----|------4---------------|
G|--------2-------3----|--------2---------3------4-|--------2-------3-----|------2---------------|
A|-----0---------------|-----0---------------------|-----0----------------|----0----3-3-4-4---0--|
E|--0--------3--3----3-|--0---------3--3------4----|--0---------3--3----3-|--0------3-3-4-4------|

Pre-Chorus
E|-----------------------|----------------------|---------------------|----------------------------|
B|-----------------------|----------------------|---------------------|----------------------------|
D|--------0---------0----|------0----------0----|----0-----------0----|-----0----------0-----------|
G|-----5-----------------|--------5-------------|-------5-------------|-------5--------------------|
A|--3--------------------|----------------------|---------------------|----------------------------|
E|-----------1--1------0-|--3--------1--1-----0-|--3-------1--1-----0-|--3------1--1-----0---------|

E|---------------------|--------------------|--------------------------------|----------------------|
B|---------------------|--------------------|--------------------------------|----------------------|
D|--------0-------0----|-----0----------0---|-----0----------0-------------0-|----------------------|
G|-----5---------------|-------0------------|--------5-----------------------|----------------------|
A|--3------------------|--------------------|---------------------3-3-3-3----|-3-3-3-3-3-3-3--------|
E|-----------1--1----0-|--3-------1--1----0-|--3-------1--1----0--3-3-3-3----|-3-3-3-3-3-3-3--0-----|
                                                                            P.M.............
Chorus
E|--------------------------------------------------|------------------------------------------------|
B|--------------------------------------------------|------------------------------------------------|
D|-----------------------------------------0--------|------------------------------------2-----------|
G|-------0--------5-------------0------------0------|------0---------5----------0-----------4-----0--|
A|-----5-------6------------8------------------1--0-|----5--------6-----------8----0------------0----|
E|---5-------8--------7--8----------81-------------|--5-------8--------7--8----------0---------------|

E|-------------------------------------------------|---------------------------|--------|
B|-------------------------------------------------|---------------------------|--------|
D|-------------------------------------0-----------|---------------------------|--------|
G|-----0--------5------------0------------0--------|---------0---------5-------|--------|
A|---5-------6------------8------------------1--0--|------5--------6-----------|---8-1--|
E|--5------8--------7--8--------81----------------|----5-------8---------7--8-|-----1---|

Interlude
E|-------------------------------------|--------------------|-----------------------|
B|-------------------------------------|--------------------|-----------------------|
D|--10---8---7--0---1-----------------|--------------------|------------------------|
G|----------------1---1--1--1-----0-0-|-12----12----13-----|-10--8-----8-----8--10--|
A|------------------------------8-0-0-|--8--8--8--8--8--0--|--6--6--6--6--6--6--6---|
E|---------------------------------0-|--8--8--8--8--8--0--|--6--8--6--6--6--6--6----|
                                            P.M   P.M               P.M.  P.M.
E|-----------------------|----------------------|------------------------|
B|-----------------------|----------------------|------------------------|
D|-----------------------|--0--0--0--0----0--0--|---7-------7---------7--|
G|-----------------------|----------------------|-------8---------8------|
A|---3--3--1--3-----1--3-|----------------------|------------------------|
E|-----------------------|----------------------|------------------------|
       P.M.....................................
E|-------------------------------|-----------------------|-----------------------------------------|
B|-------------------------------|-----------------------|-----------------------------------------|
D|-------------------------------|-----------------------|-----------------------------------------|
G|---10---------10---------10----|--5--------5--------5--|-12----12--------13----------------------|
A|---10-----10--10-----10--10--0-|--1--1--1--1-----1--1--|--8--8--8------8--8---0------------------|
E|---10-----10--10-----10--10--0-|--1--1--1--1-----1--1--|--8--8--8------8--8---0------------------|
          P.M.        P.M.            P.M...     P.M.         P.M.      P.M.
E|---------------------|----------------------|-------------------------------------------------------|
B|---------------------|----------------------|-------------------------------------------------------|
D|---0-----1-----------|----------------------|-------------------------------------------------------|
G|------1----1---1--1--|-------------------/--|---------------------------3---5---6/------------------|
A|---------------------|--3--3--1--3--1--3/---|-------------3----5----6-------------------------------|
E|---------------------|----------------------|----6----8---------------------------------------------|
                         P.M..............
E|--------------------------|------------------------------|------------------------------------------|
B|--------------------------|------------------------------|------------------------------------------|
D|--------------------------|------------------------------|------------------------------------------|
G|-10--8-----8--------8-10--|/-10---------10---------10----|-10-10----10----8---8---/-----------------|
A|--6--6--6--6-----6--6--6-/|--10--10-10--10-----10--10--0-|--6--6-----6----6---6--/------------------|
E|--6--6--6--6-----6--6--6/-|--10--10-10--10-----10--10--0-|--6--6-----6----6---6-/-------------------|
         P.M      P.M            PM.....        ...
E|------------------|---------------------------|-----------------------|----------------------|
B|------------------|---------------------------|-----------------------|----------------------|
D|---7----7-----7--|----0-----1-------1------1--|--3--1--1--0-----------|----------------------|
G|--/8--8-----8-----|-------1-----1--------1----|---------------3--3--0-|--1-------------------|
A|------------------|---------------------------|-----------------------|----3--3--1--1--------|
E|------------------|---------------------------|-----------------------|----------------6--6--|

E|------------------------|--------------------------|--------------------------------|
B|------------------------|--------------------------|--------------------------------|
D|---7--------7-------7---|---0------1---------------|--------------------------------|
G|------8--8-------8------|-------1-----1----1---1---|-----------------------------/--|
A|------------------------|--------------------------|----3--3--1--3-------1-----3/---|
E|------------------------|--------------------------|--------------------------------|
                                                            P.M....................
E|----------------------------|----------------------------------------------------------------------|
B|----------------------------|----------------------------------------------------------------------|
D|----------------------------|---------------8--10--11--12------------------------------------------|
G|--------------------3--4--6-|--8--10--12-----------------------------------------------------------|
A|----------3--5--6-----------|----------------------------------------------------------------------|
E|---6--8---------------------|----------------------------------------------------------------------|

E|--------------------------|--------------------------|-------------------------|------------------------|
B|--------------------------|--------------------------|-------------------------|------------------------|
D|--------------------------|--------------------------|-------------------------|------------------------|
G|--10-------10-------10----|-10-------10-------10-----|-10-------10-------10----|-10-10-10-10-10-10-10---|
A|---9--------9--------9----|--9--------9--------9-----|--9--------9--------9----|--9--9--9--9--9--9--9--0|
E|---6--6--6--6--6--6--6--6-|--6--6--6--6--6--6--6--6--|--6--6--6--6--6--6--6--6-|--6--6--6--6--6--6--6--0|

E|-----------------------------|-----------------------------------|----------------------------------|
B|-----------------------------|-----------------------------------|----------------------------------|
D|-----------------------------|---------------1-------------------|---5------------------------------|
G|-----------5-----------5-----|-----1-----1------1-------1-----3--|---3---------(3)--/---------------|
A|---1---1------1---1-------0--|--4-------------------4------------|---3---------(3)-/----------------|
E|---1---1------1---1----------|-----------------------------------|---3---------(3)/-----------------|


Outro-Chorus
E|---------------------------|----------------------|-----------------------|-----------------------|
B|---------------------------|----------------------|-----------------------|-----------------------|
D|---------------2-----------|---------0----0-------|----------0------------|---------0---0---------|
G|------0-----------4--------|------0--x----x-------|-------------0---------|------0--x---x---------|
A|---8-----0-----------5--0--|----5----1----1--0----|--8-------------1--0--|----5----1---1---0---8--|
E|------------0--------------|--5------1----1--0--8-|--8---1---------------|--5------1---1---0---8--|

E|-------------------------|-------------------------|--------------------|------------------------|
B|-------------------------|-------------------------|--------------------|------------------------|
D|---------------2---------|------------0----0-------|--------0-----------|-----------0----0-------|
G|------------------4----0-|------------x----x-------|-----------0--------|-----------x----x-------|
A|--(8)--8--8----------0---|------5--0--1----1--0--8-|--8-------------0--|-----5--0--1----1--0-----|
E|--(8)--8--8--0-----------|---5--------1----1--0--8-|--8---1------1-----|---5-------1----1--0--8--|

E|----------------------|-----------------------------|------------------------|------------------------|
B|----------------------|-----------------------------|------------------------|------------------------|
D|--------------2-------|------------0-----0----------|---------------0--------|-----------0---0--------|
G|------0---------------|------------x-----x----------|-----0-----------0------|-----------x---x--------|
A|--8------0-------5--0-|------5--0--1-----1----------|--8----------------1--0-|--5--5--0--1---1--0--8--|
E|-----------0----------|---5-----0--1-----1---0---8--|--------(8)1-----------|--5--5--0--1---1--0--8---|

Ending note
E|-----------------------|
B|-------------3------3--|
D|-------------0------0--|
G|-------------x------x--|
A|-------8----1------1---|
E|-------8----1------1---|

            
            
Suggest correction
Creating personal tab
Creating personal tab
You can edit any tab online and save it as your Personal.

You can edit, replace or remove any tab part or add personal notes – all changes will be seen only by you.

Personal tabs can be accessed anytime from any device, even offline.
Learn more »
Give kudos to tab author, rate the tab!
1 2 3 4 5
comments
print report bad tab
guest
You may want to rate the tab now too:
select rating
Wanna post a correction for this tab? Suggest correction