Oops, an error
Loading. Please wait.

Anna Molly bass

version 5
version 5

Whole song

Interactive

by Incubus
4,278 views 3 this week
1 commentread comment
1 2 3 4 5
1 last vote to show rating
add to favorites
×
Save as Personal and add changes to this tab that will be seen only by you. Learn more ›
×
You can save this tab as Personal to edit and correct it or add notes. All changes will be seen only by you. Learn more »
launch autoscroll
font size
0
reset
guitar tuner
backing track
0:00
0:00
edit
Autoscroll
slow
fast
+/-
esc
set tempo
stop
Difficulty
intermediate
Intro

G|---------------------------------------|
D|---------------------------------------|
A|--------6-----6h8-----6----------------|
E|---6h8-----4-------8-----4--1--1-3-3-3-|

Preverse

G|-----------------------------|----------------------------------|
D|-----------------------------|----------------------------------|
A|--3-3-3-3-3--1-------------6-|--3-3-3-3-1-1-1-1---------5-5-5-5-|
E|----------------3-3-3-3-3----|------------------3-3-3-3---------|

G|-----------------------------|------------------------------------------|
D|-----------------------------|------------------------------------------|
A|--3-3-3-3-3--1-------------6-|--3-3-3-3-1-1-1-1/10-10-10-10-------------|
E|----------------3-3-3-3-3----|------------------------------10-10-10-10-|

Verse

G|-----------------------------|
D|-----------------------------| x7 (VERY short between the 2 hammered notes)
A|--3-3-3-3-1h3--3h5p3---------|
E|---------------------6--3-3--|

 8th time:
G|-------------------------------|                      |--------|
D|-------------------------------| (for easy reach, use |---/5---| at end)
A|--3-3-3-3-1h3--3h5p3--/10------|                      |------5-|
E|---------------------6----10---|                      |--6-----|


Chorus

G|--------------------------------------------|
D|--------------------------------------------|
A|--3--3--1h3--6--3-3--6----------------6h8-8-|
E|-----------------------6-4-4-4-4--4-4-------|

G|----------------------------------------------|
D|----------------------------------------------|
A|--3--3--1h3--6--3-3--6------------------------|
E|-----------------------6-4-4-4-4--1--1--3-3-3-|


Preverse

G|-----------------------------|----------------------------------|
D|-----------------------------|----------------------------------|
A|--3-3-3-3-3--1-------------6-|--3-3-3-3-1-1-1-1---------5-5-5-5-|
E|----------------3-3-3-3-3----|------------------3-3-3-3---------|

G|-----------------------------|------------------------------------------|
D|-----------------------------|------------------------------------------|
A|--3-3-3-3-3--1-------------6-|--3-3-3-3-1-1-1-1/10-10-10-10-------------|
E|----------------3-3-3-3-3----|------------------------------10-10-10-10-|

2nd Verse

G|-----------------------------|
D|-----------------------------| x3 (VERY short between the 2 hammered notes)
A|--3-3-3-3-1h3--3h5p3---------|
E|---------------------6--3-3--|

 4th time:
G|-------------------------------|                      |--------|
D|-------------------------------| (for easy reach, use |---/5---| at end)
A|--3-3-3-3-1h3--3h5p3--/10------|                      |------5-|
E|---------------------6----10---|                      |--6-----|

2nd Verse played twice

Chorus

G||---------------------------------------------|
D||.--------------------------------------------|
A||.--3--3--1h3--6--3-3--6----------------6h8-8-|
E||------------------------6-4-4-4-4--4-4-------|

G|----------------------------------------------||
D|---------------------------------------------.|| x2
A|--3--3--1h3--6--3-3--6-----------------------.||
E|-----------------------6-4-4-4-4--1--1--3-3-3-||


Bridge

 Part 1

G|-----------|
D|-----------| x4 (very soft...I don't think bass actually hits here...)
A|-----------|
E|--4~/6\3~--|

 Part 2

G|---------------------------------------------------|
D|---------------------------------------------------| x3 (JAM!!!)
A|--3-1-3--6-6-6--3-1-3--6-8-8--3-1-3-6-6-6------8-8-|
E|-------------------------------------------4-6-----|

(Drum solo break)

Chorus

G|--------------------------------------------|
D|--------------------------------------------|
A|--3--3--1h3--6--3-3--6----------------6h8-8-|
E|-----------------------6-4-4-4-4--4-4-------|

G||-----------------------------------------------||
D||.---------------------------------------------.|| (end half of chorus 3x)
A||.--3--3--1h3--6--3-3--6-----------------------.||
E||-----------------------6-4-4-4-4--1--1--3-3-3--||

Outro

G|-----------------------------|----------------------------------|
D|-----------------------------|----------------------------------|
A|--3-3-3-3-3--1-------------6-|--3-3-3-3-1-1-1-1---------5-5-5-5-|
E|----------------3-3-3-3-3----|------------------3-3-3-3---------|

G|-----------------------------|------------------------------------------|
D|-----------------------------|------------------------------------------|
A|--3-3-3-3-3--1-------------6-|--3-3-3-3-1-1-1-1/10-10-10-10-------------|
E|----------------3-3-3-3-3----|------------------------------10-10-10-10-|

Probably about the best you're gonna get...thanks for looking! Reaches take just a 
practice...its a really good song, so just jam to it a couple times and it will come pretty easy.

            
            
Suggest correction
Creating personal tab
Creating personal tab
You can edit any tab online and save it as your Personal.

You can edit, replace or remove any tab part or add personal notes – all changes will be seen only by you.

Personal tabs can be accessed anytime from any device, even offline.
Learn more »
Give kudos to tab author, rate the tab!
1 2 3 4 5
comments
print report bad tab
1 comment total.
+1 reply
alreadygone 131 Jan 05, 2007 07:09 AM

well its alright, although I think you missed a bunch of slides which make this song fun to play, plus I think its off in a bunch of places. check the other anna molly bass tab on here, that seems more accurate

guest
Wanna post a correction for this tab? Suggest correction