Oops, an error
Loading. Please wait.

Aqueous Transmission intro tab

version 1
version 1

Intro

Whole song

Interactive

by Incubus
11,911 views 3 this week
2 commentsread comments
1 2 3 4 5
x 3
add to favorites
×
Save as Personal and add changes to this tab that will be seen only by you. Learn more ›
×
You can save this tab as Personal to edit and correct it or add notes. All changes will be seen only by you. Learn more »
launch autoscroll
font size
0
reset
how to read this tab
guitar tuner
edit
Autoscroll
slow
fast
+/-
esc
set tempo
stop
Author
Aqueous Transmissions - Incubus

Okay, I've seen alot of tabs, but I don't think they sound quite right.
Here's the way I play it. Also, pluck near the bridge to give that twangy sound.
It sounds just great.

Tuning: Drop D (DADGBe)
~ = vibrato (wiggle the string)

e----------------------------------------------------------------
B---------12-10--------------------------------------------------
G---------------11~----------------------------------------------
D----------------------9--7----9-7-9-------9-7-9-----------------
A------0--------------0------7-------7-----------7---------------
D----0---------------0-------------------7-----------------------

Listen to the song to get the right flow. That's all for now.
comments e-mail carl_yungblut@hotmail.com, subject "guitar tab", otherwise I'll delete it.

            
            
Suggest correction
Creating personal tab
Creating personal tab
You can edit any tab online and save it as your Personal.

You can edit, replace or remove any tab part or add personal notes – all changes will be seen only by you.

Personal tabs can be accessed anytime from any device, even offline.
Learn more »
Give kudos to tab author, rate the tab!
1 2 3 4 5
comments
print report bad tab
2 comments total.
0 reply
Quangjah 140 Jul 12, 2004 08:00 PM

Yeah, I figured pretty much the same thing, except:

vibrato
~~~~~~~~~
e|--------------------------------------------------------------
B|--------10-----------------------0---0-----------0---0--------
G|----------11--------------------------------------------------
D|------9---------------\9---7-------7---------------7----------
A|----0-----------------0--------7-------7----------------------
D|--0------------------0-------------------------9-------9------
eric (fookwanfoo@hotmail.com)

0 reply
Quangjah 140 Jul 12, 2004 08:00 PM

that vibrato's supposed to be over the 11. formatting.

guest
You may want to rate the tab now too:
select rating
Wanna post a correction for this tab? Suggest correction