Oops, an error
Loading. Please wait.

Aqueous Transmission tab

version 2
version 2

Whole song

Interactive

by Incubus
3,179 views 1 this week
no commentswrite comment
1 2 3 4 5
2 more votes to show rating
add to favorites
×
Save as Personal and add changes to this tab that will be seen only by you. Learn more ›
×
You can save this tab as Personal to edit and correct it or add notes. All changes will be seen only by you. Learn more »
launch autoscroll
font size
0
reset
how to read this tab
guitar tuner
edit
Autoscroll
slow
fast
+/-
esc
set tempo
stop
This is an accurate tab of this song on the pipa
Tuning : A,D,E,A (the D is an octave lower)

    S  S  S  S   Q        Q         E       E
A|-----------12--9~~~~~~~(9)---------------------------|
E|--------7-------------------------7b8r7---5----------|
D|--0------------------------------0-------------------|
A|-----0--------------------------0--------------------|

    S  S  S  S  Q           S  S  S  S  Q
A|--------0-----------------------0--------------------|
E|-----7-----7-----------------7-----7-----------------|
D|--------------------------9-----------9--------------|
A|--7-----------7--------------------------------------|

There is another (easier) way to play it and I believe it is the way Mike Einziger 
(Incubus guitarist) plays it.
The tuning is different this time : D,A,D,A (Down tune the 4th string 3½ steps lower, 
the 3rd one 3½ steps higher and the 2nd one a step lower)

    S  S  S  S   Q       Q         E       E
A|-----------12--9~~~~~~(9)----------------------------|
D|--------9-------------------------9b10r9--7----------|
A|-----0---------------------------0-------------------|
D|--0-----------------------------0--------------------|


A|--------0--------------------0-----------------------|
D|-----9-----9--------------9-----9--------------------|
A|--7-----------7--------------------------------------|
D|-----------------------9-----------9-----------------|

Repeat this over and over, try to improvise something through it and have fun!

            
            
Suggest correction
Creating personal tab
Creating personal tab
You can edit any tab online and save it as your Personal.

You can edit, replace or remove any tab part or add personal notes – all changes will be seen only by you.

Personal tabs can be accessed anytime from any device, even offline.
Learn more »
Give kudos to tab author, rate the tab!
1 2 3 4 5
comments
print report bad tab
guest
You may want to rate the tab now too:
select rating
Wanna post a correction for this tab? Suggest correction