Oops, an error
Loading. Please wait.

Are You In bass

version 5
version 5

Interactive

by Incubus
2,571 views 6 this week
no commentswrite comment
1 2 3 4 5
2 more votes to show rating
add to favorites
×
Save as Personal and add changes to this tab that will be seen only by you. Learn more ›
×
You can save this tab as Personal to edit and correct it or add notes. All changes will be seen only by you. Learn more »
launch autoscroll
font size
0
reset
guitar tuner
backing track
0:00
0:00
edit
Autoscroll
slow
fast
+/-
esc
set tempo
stop
Author
-----------------------------------------------------------------------------
                            Are You In? - Incubus
-----------------------------------------------------------------------------

I Re-did it... Fixed the little mistakes and the bridge


Tuning: Standard

Intro
G|-14/16~----------14/16~------------|   |-14/16~-|
D|-14/16~----------14/16~------------|   |-14/16~-|
A|--------------------------14~------|   |--------|
E|------------------------------14~\-|x2 |--------|

-Pause for drum intro...-

Verse
G|-14h16p14-----------------------------------------------------------|
D|---------16---------------------------------------------------------|
A|----------------------x------------12--12h14---------x----22--2--20-|
E|-------------10--x75---02---14--12----------10--x75---02------------|

G|---------------------------------------------------------|
D|---------------------------------------------------------|
A|----------x-------------12--12h14---------x----22--2--20-|
E|-10--x75---02---14--12-----------10--x75---02------------|x2

Chorus
G|--------------------------------------------------------------------------|
D|--------------------------------------------------------------------------|
A|--------------------------------------------------------------------------|
E|-10-10-10-10-5-5-5-5-2-2-2-2-2-2-2-2-10-10-10-10-5-5-5-5-2-2-2-7-7-8-9-10-|x2

Verse
G|---------------------------------------------------------|
D|---------------------------------------------------------|
A|----------x-------------12--12h14---------x----22--2--20-|
E|-10--x75---02---14--12-----------10--x75---02------------|x3

Chorus
G|--------------------------------------------------------------------------|
D|--------------------------------------------------------------------------|
A|--------------------------------------------------------------------------|
E|-10-10-10-10-5-5-5-5-2-2-2-2-2-2-2-2-10-10-10-10-5-5-5-5-2-2-2-7-7-8-9-10-|

G|---------------------------------------------------------|
D|---------------------------------------------------------|
A|---------------------------------------------------------|
E|-10-10-10-10-5-5-5-5-2-2-2-2-2-2-2-2-10-10-10-10-5-5-5-5-|
                                          
Bridge
G|---------------------------|
D|-----5------5------7-------| 
A|----5------5------7--------|
E|-0------3------5-----0---3-|x6

Verse
G|-14h16p14-----------------------------------------------------------|
D|---------16---------------------------------------------------------|
A|----------------------x------------12--12h14---------x----22--2--20-|
E|-------------10--x75---02---14--12----------10--x75---02------------|

G|---------------------------------------------------------|
D|---------------------------------------------------------|
A|----------x-------------12--12h14---------x----22--2--20-|
E|-10--x75---02---14--12-----------10--x75---02------------|

Chorus
G|--------------------------------------------------------------------------|
D|--------------------------------------------------------------------------|
A|--------------------------------------------------------------------------|
E|-10-10-10-10-5-5-5-5-2-2-2-2-2-2-2-2-10-10-10-10-5-5-5-5-2-2-2-7-7-8-9-10-|

End On
G|-------|
D|-------|
A|-------|
E|--10~--|


| /  slide up
| \  slide down
| h  hammer-on
| p  pull-off
| ~  let note ring
| +  harmonic
| x  Mute note
===============================================================================
Suggest correction
Creating personal tab
Creating personal tab
You can edit any tab online and save it as your Personal.

You can edit, replace or remove any tab part or add personal notes – all changes will be seen only by you.

Personal tabs can be accessed anytime from any device, even offline.
Learn more »
Give kudos to tab author, rate the tab!
1 2 3 4 5
comments
print report bad tab
guest
You may want to rate the tab now too:
select rating
Wanna post a correction for this tab? Suggest correction