Oops, an error
Loading. Please wait.

Beware Criminal tab

version 4
version 4

Whole song

Interactive

by Incubus
4,365 views 9 this week
no commentswrite comment
1 2 3 4 5
x 3
add to favorites
×
Save as Personal and add changes to this tab that will be seen only by you. Learn more ›
×
You can save this tab as Personal to edit and correct it or add notes. All changes will be seen only by you. Learn more »
launch autoscroll
font size
0
reset
how to read this tab
guitar tuner
edit
Autoscroll
slow
fast
+/-
esc
set tempo
stop
-------------------------------------------------------------------------------
BEWARE! CRIMINAL - Incubus
-------------------------------------------------------------------------------
Tabbed by: Federico Ribeiro

Tuning: Standard

Intro

e-------------------------|-------------------------|-------------------------|
B-------------------------|-x--------------x--x--x--|-x--x--------------------|
G-------------------------|-x--------------x--x--x--|-x--x--------------------|
D-------------------------|-x--------------x--x--x--|-x--x--------------------|
A-------------------------|-------------------------|-------------------------|
E-------------------------|-------------------------|-------------------------|

e-------------------------|-------------------------|-------------------------|
B-------------------------|-------------------------|-------------------------|
G-------------------------|-------11-------11----11-|----------11-------------|
D-------------x--11-11^---|-------------------------|-------11-11----11-11^---|
A-------------x--11-11^---|----9--------9-----9-----|----9--------9--11-11^---|
E-------------x--9--9-----|-0--------0--------------|-9-----------9--9--9-----|

e-------------------------|-------------------------|-------------------------|
B-------------------------|-------------------------|-------------------------|
G-------11-------11----11-|----------11-11\---------|-------11-------11----11-|
D-------------------------|-------11-11-11\7--7--7--|-------------------------|
A----9--------9-----9-----|----9-----9--9\-7--7--7--|----9--------9-----9-----|
E-0--------0--------------|-9--------------5--5--5--|-0--------0--------------|

e-------------------------|-------------------------|-------------------------|
B-------------------------|-------------------------|-------------------------|
G-------------------------|-------11-------11----11-|----------11-11\---------|
D-------11-11-x--11-11^---|-------------------------|-------11-11-11\7--7--7--|
A----9-----9--x--11-11^---|----9--------9-----9-----|----9-----9--9\-7--7--7--|
E-9--------------9--9-----|-0--------0--------------|-9--------------5--5--5--|

Verse

e-------------------------|-------------------------|-------------------------|
B-------------------------|-------------------------|-------------------------|
G-------11-------11----11-|----------11-------------|-------11-------11----11-|
D-------------------------|-------11-11----11-11^---|-------------------------|
A----9--------9-----9-----|----9--------9--11-11^---|----9--------9-----9-----|
E-0--------0--------------|-9-----------9--9--9-----|-0--------0--------------|

e-------------------------|-------------------------|-------------------------|
B-------------------------|-------------------------|-------------------------|
G----------11-11\---------|-------11-------11----11-|----------11-------------|
D-------11-11-11\7--7--7--|-------------------------|-------11-11----11-11^---|
A----9-----9--9\-7--7--7--|----9--------9-----9-----|----9--------9--11-11^---|
E-9--------------5--5--5--|-0--------0--------------|-9-----------9--9--9-----|

e-------------------------|-------------------------------|-------------------------|
B-------------------------|-------------------------------|-------------------------|
G-------11-------11----11-|----------11-11----------------|-1-----------------------|
D-------------------------|-------11-11-11----------------|-2-----------------------|
A----9--------9-----9-----|-------9--9--9--11-11-7--7-----|-2-------------------/9--|
E-0--------0--------------|-9--------------9--9--5--5--0--|-0-----------0--0--------|

e-------------------------|-------------------------|-------------------------|
B-------------------------|-------------------------|-------------------------|
G-------11-------11----11-|----------11-------------|-------11-------11----11-|
D-------------------------|-------11-11----11-11^---|-------------------------|
A----9--------9-----9-----|----9--------9--11-11^---|----9--------9-----9-----|
E-0--------0--------------|-9-----------9--9--9-----|-0--------0--------------|

e-------------------------|-------------------------|-------------------------|
B-------------------------|-------------------------|-------------------------|
G----------11-11\---------|-------11-------11----11-|----------11-------------|
D-------11-11-11\7--7--7--|-------------------------|-------11-11----11-11^---|
A----9-----9--9\-7--7--7--|----9--------9-----9-----|----9--------9--11-11^---|
E-9--------------5--5--5--|-0--------0--------------|-9-----------9--9--9-----|

e-------------------------|-------------------------------|-------------------------|
B-------------------------|-------------------------------|-------------------------|
G-------11-------11----11-|-------------------------------|-1-----------------0-----|
D-------------------------|-------11-11-11----------------|-2-----------------0-----|
A----9--------9-----9-----|----9--9--9--9--11-11-7--7-----|-2-----------------0--0--|
E-0--------0--------------|-9--------------9--9--5--5--0--|-0--------------------0--|

Chorus

e-------------------------|-------------------------|-------------------------|
B----------5-----5--5-----|-------------------------|-------------------------|
G-6-----0--6-----6--6--x-x|-10-------10----10-10----|-------------------------|
D-7-----0--7-----7--7--x-x|-9-----0--9-----9--9-----|-------------------------|
A-7-----0--7-----7--7--x-x|-11----0--11----11-11-0--|-4-----4-----4--4-----3--|
E-5--------5-----5--5--x-x|-9--------9-----9--9--0--|-2--0--2--0--2--2--0--1--|

e-------------------------|--------------------------|-------------------------|
B-------------------------|--------------------------|-------------------------|
G-------------------------|--------------------------|-10-------10----10-10----|
D-------------------------|-7--------7-----7--7------|-9-----0--9-----9--9-----|
A----3--3-----3-----3-----|-7-----0--7-----7--7--1111|-11----0--11----11-11-0-0|
E-0--1--1--0--1--0--1--0--|-5-----0--5-----5--5--9-9-|-9--------9-----9--9--0-0|

e-------------------------|-------------------------|-------------------------|
B-------------------------|-------------------------|-------------------------|
G-------------------------|-------------------------|-------------------------|
D-------------------------|-------------------------|-7--------7-----7--7--6--|
A-4-----0--4-----4--4-\3--|-3--3--3-----2--2--2--2--|-7--------7-----7--7--6--|
E-2-----0--2-----2--2-\1--|-1--1--1--0--0--0--0--0--|-5-----0--5-----5--5--4--|

e-------------------------|-------------------------|-------------------------|
B-------------------------|-------------------------|-------------------------|
G-5--------5--------5--x-x|-6--------6-----6--6-----|-6--------6--6--6--6-----|
D-6--------6--6--6--6--x-x|-6--------6-----6--6-----|-7--------7--7--7--7-----|
A-6-----0--6--6--6--6--x-x|-4-----0--4-----4--4-----|-7-----0--7--7--7--7--0--|
E-4-----0--4--4--4--4--x-x|-4-----0--4-----4--4--5-5|-5-----0--5--5--5--5--0--|

e----------0-----0--------|-------------------------|-------------------------|
B----------0-----0--------|-------------------------|-------------------------|
G----------1-----1--------|-7-----7--7-----7--7-----|-3-----------------------|
D-------2--2--------------|-7-----7--7-----7--7-----|-4-----------------------|
A-2-----2-----------2-----|-5-----5--5-----5--5-----|-4-----------------------|
E-0-----0-----------0-----|----------------------0--|-2-----------------------|

e----------------0--0--0--|
B----------------5--5--5--|
G-------------------------|
D-------------------------|
A-------------------------|
E-------------------------|

Interlude

e-------------------------|-------------------------|-------------------------|
B-------------------------|-------------------------|-------------------------|
G-------11-------11----11-|----------11-------------|-------11-------11----11-|
D-------------------------|-------11-11----11-11^---|-------------------------|
A----9--------9-----9-----|----9--------9--11-11^---|----9--------9-----9-----|
E-0--------0--------------|-9-----------9--9--9-----|-0--------0--------------|

e-------------------------|-------------------------|-------------------------|
B-------------------------|-------------------------|-------------------------|
G----------11-11\---------|-------11-------11----11-|----------11-------------|
D-------11-11-11\7--7--7--|-------------------------|-------11-11----11-11^---|
A----9-----9--9\-7--7--7--|----9--------9-----9-----|----9--------9--11-11^---|
E-9--------------5--5--5--|-0--------0--------------|-9-----------9--9--9-----|

e-------------------------|-------------------------------|-------------------------------------|
B-------------------------|-------------------------------|-------------------------------------|
G-------11-------11----11-|-------------------------------|-1-----------------------------------|
D-------------------------|-------11-11-11----------------|-2-----------------------------2/----|
A----9--------9-----9-----|----9--9--9--9--11-11-7--7-----|-2-----------------------------2/----|
E-0--------0--------------|-9--------------9--9--5--5--0--|-0-----------------------------------|

Verse

e-------------------------|-------------------------|-------------------------|
B-------------------------|-------------------------|-------------------------|
G-------11-------11----11-|----------11-------------|-------11-------11----11-|
D-------------------------|-------11-11----11-11^---|-------------------------|
A----9--------9-----9-----|----9--------9--11-11^---|----9--------9-----9-----|
E-0--------0--------------|-9-----------9--9--9-----|-0--------0--------------|

e-------------------------|-------------------------|-------------------------|
B-------------------------|-------------------------|-------------------------|
G----------11-11\---------|-------11-------11----11-|----------11-------------|
D-------11-11-11\7--7--7--|-------------------------|-------11-11----11-11^---|
A----9-----9--9\-7--7--7--|----9--------9-----9-----|----9--------9--11-11^---|
E-9--------------5--5--5--|-0--------0--------------|-9-----------9--9--9-----|

e-------------------------|-------------------------------|-------------------------|
B-------------------------|-------------------------------|-------------------------|
G-------11-------11----11-|-------------------------------|-1-----------------------|
D-------------------------|-------11-11-11----------------|-2-----------------------|
A----9--------9-----9-----|----9--9--9--9--11-11-7--7-----|-2-------------------/9--|
E-0--------0--------------|-9--------------9--9--5--5--0--|-0-----------------------|

e-------------------------|-------------------------|-------------------------|
B-------------------------|-------------------------|-------------------------|
G-------11-------11----11-|----------11-------------|-------11-------11----11-|
D-------------------------|-------11-11----11-11^---|-------------------------|
A----9--------9-----9-----|----9--------9--11-11^---|----9--------9-----9-----|
E-0--------0--------------|-9-----------9--9--9-----|-0--------0--------------|

e-------------------------|-------------------------|-------------------------|
B-------------------------|-------------------------|-------------------------|
G----------11-11\---------|-------11-------11----11-|----------11-------------|
D-------11-11-11\7--7--7--|-------------------------|-------11-11----11-11^---|
A----9-----9--9\-7--7--7--|----9--------9-----9-----|----9--------9--11-11^---|
E-9--------------5--5--5--|-0--------0--------------|-9-----------9--9--9-----|

e-------------------------|-------------------------------|-------------------------|
B-------------------------|-------------------------------|-------------------------|
G-------11-------11----11-|-------------------------------|-1-----------------0-----|
D-------------------------|-------11-11-11----------------|-2-----------------0-----|
A----9--------9-----9-----|----9--9--9--9--11-11-7--7-----|-2-----------------0--0--|
E-0--------0--------------|-9--------------9--9--5--5--0--|-0--------------------0--|

Chorus

e-------------------------|-------------------------|-------------------------|
B----------5-----5--5-----|-------------------------|-------------------------|
G-6-----0--6-----6--6--x-x|-10-------10----10-10----|-------------------------|
D-7-----0--7-----7--7--x-x|-9-----0--9-----9--9-----|-------------------------|
A-7-----0--7-----7--7--x-x|-11----0--11----11-11-0--|-4-----4-----4--4-----3--|
E-5--------5-----5--5--x-x|-9--------9-----9--9--0--|-2--0--2--0--2--2--0--1--|

e-------------------------|--------------------------|-------------------------|
B-------------------------|--------------------------|-------------------------|
G-------------------------|--------------------------|-10-------10----10-10----|
D-------------------------|-7--------7-----7--7------|-9-----0--9-----9--9-----|
A----3--3-----3-----3-----|-7-----0--7-----7--7--1111|-11----0--11----11-11-0-0|
E-0--1--1--0--1--0--1--0--|-5-----0--5-----5--5--9-9-|-9--------9-----9--9--0-0|

e-------------------------|-------------------------|-------------------------|
B-------------------------|-------------------------|-------------------------|
G-------------------------|-------------------------|-------------------------|
D-------------------------|-------------------------|-7--------7-----7--7--6--|
A-4-----0--4-----4--4-\3--|-3--3--3-----2--2--2--2--|-7--------7-----7--7--6--|
E-2-----0--2-----2--2-\1--|-1--1--1--0--0--0--0--0--|-5-----0--5-----5--5--4--|

e-------------------------|-------------------------|-------------------------|
B-------------------------|-------------------------|-------------------------|
G-5--------5--------5--x-x|-6--------6-----6--6-----|-6--------6--6--6--6-----|
D-6--------6--6--6--6--x-x|-6--------6-----6--6-----|-7--------7--7--7--7-----|
A-6-----0--6--6--6--6--x-x|-4-----0--4-----4--4-----|-7-----0--7--7--7--7--0--|
E-4-----0--4--4--4--4--x-x|-4-----0--4-----4--4--5-5|-5-----0--5--5--5--5--0--|

e----------0-----0--------|-------------------------|-------------------------|
B----------0-----0--------|-------------------------|-------------------------|
G----------1-----1--------|-7-----7--7-----7--7-----|-3-----------------------|
D-------2--2--------------|-7-----7--7-----7--7-----|-4-----------------------|
A-2-----2-----------2-----|-5-----5--5-----5--5-----|-4-----------------------|
E-0-----0-----------0-----|----------------------0--|-2-----------------------|

e-------------------------|-------------------------|-------------------------|
B-------------------------|-------------------------|-------------------------|
G-------------------------|-3-----------------------|-------------------------|
D-------------------------|-4-----------------------|-------------------------|
A----------------------4--|-4-----------------------|----------------------4--|
E----------------------0--|-2-----------------------|----------------------0--|

e-------------------------|-------------------------|
B-------------------------|-------------------------|
G-3-----------------------|-------------------------|
D-4-----------------------|-------------------------|
A-4-----------------------|-------------------x/----|
E-2-----------------------|-------------------------|

Bridge

e-------------------------|-------------------------|-------------------------|
B-------------------------|-------------------------|-------------------------|
G-------------------------|-------------------------|-------------------------|(Guitar 1; Clean)
D-------------------------|-------------------------|-------------------------|
A-------4-----------4-----|-------4-----------4-----|-------4-----------4-----|
E-2--2-----0-----0-----0--|-2--2-----0-----0-----0--|-2--2-----0-----0-----0--|
|
e-------------------------|-------------------------|-------------------------|
B-------------------------|-------------------------|-------------------------|
G-------------------------|-------------------------|-------------------------|(Guitar 2;
D-------------------------|----------------------2--|-4-----4--2-----2--------| Distorted)
A-------------------------|-------------1--2--4-----|-------------------2--1--|
E-------------------------|-------------------------|-------------------------|

e-------------------------|-------------------------|-------------------------|
B-------------------------|-------------------------|-------------------------|
G-------------------------|-------------------------|-------------------------| 
D-------------------------|-------------------------|-------------------------|
A-------4-----------4-----|-------4-----------4-----|-------4-----------4-----|
E-2--2-----0-----0-----0--|-2--2-----0-----0-----0--|-2--2-----0-----0-----0--|
|
e-------------------------|-------------------------|-------------------------|
B-------------------------|-------------------------|-------------------------|
G-------------------------|-------------------------|-------------------------| 
D-------------------------|-------------------------|----------------------2--|
A-------------------------|-------------------------|-------------1--2--4-----|
E-------------------------|-------------------------|-------------------------|

e-------------------------|-------------------------|
B-------------------------|-------------------------|
G-------------------------|-------------------------| 
D-------------------------|-------------------------|
A-------4-----------4-----|-------4-----------4-----|
E-2--2-----0-----0-----0--|-2--2-----0-----0-----0--|
|
e-------------------------|-------------------------|
B-------------------------|-------------------------|
G-------------------------|-------------------------| 
D-4-----4--2-----2--------|-------------------------|
A-------------------2--1--|-------------------------|
E-------------------------|-------------------------|

e-------------------------|-------------------------|-------------------------|
B-------------------------|-------------------------|-------------------------|
G-------------------------|-------------------------|-------------------------|(Guitar 1;
D-------------------------|-------------------------|-------------------------| Distorted)
A-------4-----------4-----|-------4-----------4-----|-------4-----------4-----|
E-2--2-----0-----0-----0--|-2--2-----0-----0-----0--|-2--2-----0-----0-----0--|
|
e-------------------------|-------------------------|-------------------------|
B-------------------------|-------------------------|-------------------------|
G-------------------------|-------------------------|-------------------------|(Guitar 2;
D-------------------------|----------------------2--|-4-----4--2-----2--------| Distorted)
A-------------------------|-------------1--2--4-----|-------------------2--1--|
E-------------------------|-------------------------|-------------------------|

e-------------------------|-------------------------|-------------------------|
B-------------------------|-------------------------|-------------------------|
G-------------------------|-------------------------|-------------------------| 
D-------------------------|-------------------------|-------------------------|
A-------4-----------4-----|-------4-----------4-----|-------4-----------4-----|
E-2--2-----0-----0-----0--|-2--2-----0-----0-----0--|-2--2-----0-----0-----0--|
|
e-------------------------|-------------------------|-------------------------|
B-------------------------|-------------------------|-------------------------|
G-------------------------|-------------------------|-------------------------| 
D-------------------------|-------------------------|----------------------2--|
A-------------------------|-------------------------|-------------1--2--4-----|
E-------------------------|-------------------------|-------------------------|

e-------------------------|-------------------------|-------------------------|
B-------------------------|-------------------------|-------------------------|
G-------------------------|-------------------------|-------------------------|
D-------------------------|-------------------------|-------------------------|
A-------4-----------4-----|-------4-----------4-----|-------4-----------4-----|
E-2--2-----0-----0-----0--|-2--2-----0-----0-----0--|-2--2-----0-----0-----0--|
|
e-------------------------|-------------------------|-------------------------|
B-------------------------|-------------------------|-------------------------|
G-------------------------|-------------------------|-------------------------|
D-4-----4--2-----2--------|-------------------------|-------------------------|
A-------------------2--1--|-------------------------|-------------------------|
E-------------------------|-------------------------|-------------------------|

e-------------------------|-------------------------|-------------------------|
B-------------------------|-------------------------|-------------------------|
G-------------------------|-------------------------|-------------------------|
D-------------------------|-------------------------|-------------------------|
A-------4-----------4-----|-------4-----------4-----|-------4-----------4-----|
E-2--2-----0-----0-----0--|-2--2-----0-----0-----0--|-2--2-----0-----0-----0--|
|
e-------------------------|-------------------------|-------------------------|
B-------------------------|-------------------------|-------------------------|
G-------------------------|-------------------------|-------------------------|
D----------------------2--|-4-----4--2-----2--------|-------------------------|
A-------------1--2--4-----|-------------------2--1--|-------------------------|
E-------------------------|-------------------------|-------------------------|

e-------------------------|-------------------------|-------------------------|
B-------------------------|-------------------------|-------------------------|
G-------------------------|-------------------------|-------------------------|
D-------------------------|-------------------------|-------------------------|
A-------4-----------4-----|-------4-----------4-----|-------4-----------4-----|
E-2--2-----0-----0-----0--|-2--2-----0-----0-----0--|-2--2-----0-----0-----0--|
|
e-------------------------|-------------------------|-------------------------|
B-------------------------|-------------------------|-------------------------|
G-------------------------|-------------------------|-------------------------|
D-------------------------|----------------------2--|-4-----4-p2--2-----------|
A-------------------------|-------------1--2-h4-----|-------------------2-\1--|
E-------------------------|-------------------------|-------------------------|

e-------------------------|
B-------------------------|
G-------------------------| 
D-------------------------|
A-------4-----------4-----|
E-2--2-----0-----0-----0--|
|
e-------------------------|
B-------------------------|
G-------------------------| 
D-------------------------|
A-------------------------|
E-------------------------|

Chorus

e-------------------------|-------------------------|-------------------------|
B----------------2--------|----------------6--------|-------------------------|
G----------2--------------|-----------4-------------|----------3--------------|(Guitar 1; Clean) 
D-------2-----------------|-------6-----------------|----------------4--------|
A-0-----------------------|-4-----------------------|-------4-----------------|
E-------------------------|-------------------------|-2--------------------0--|
|
e-0-----------------------|-------------------------|-------------------------|
B-2-----------------------|-6-----------------------|-2-----------------------|
G-2-----------------------|-4-----------------------|-3-----------------------|(Guitar 3; 
D-2-----------------------|-6-----------------------|-4-----------------------| Acoustic)
A-0-----------------------|-4-----------------------|-4-----------------------|
E-------------------------|-------------------------|-2-----------------------|

e-------------------------|-------------------------|-------------------------|
B-------------------------|----------------2--------|----------------6--------|
G----------2--------------|-----------2-------------|----------4--------------| 
D----------------3--------|-------2-----------------|-------6-----------------|
A-------3-----------------|-0-----------------------|-4-----------------------|
E-1-----------------------|-------------------------|-------------------------|
|
e-------------------------|-0-----------------------|-------------------------|
B-------------------------|-2-----------------------|-6-----------------------|
G-------------------------|-2-----------------------|-4-----------------------| 
D-------------------------|-2-----------------------|-6-----------------------|
A-------------------------|-0-----------------------|-4-----------------------|
E-------------------------|-------------------------|-------------------------|

e-------------------------|-------------------------|-------------------------|
B-------------------------|-------------------------|-------------------------|
G-------------------------|-------------------------|-------------------------|(Guitar 1;
D-------------------------|-------------------------|-7--------7-----7--7--6--| Distorted)
A-4-----4-----4-----4-----|-3-----3-----2--2--2--2--|-7--------7-----7--7--6--|
E-2-----2-----2-----2--0--|-1-----1--0--0--0--0--0--|-5-----0--5-----5--5--4--|

e-------------------------|-------------------------|-------------------------|
B-------------------------|-------------------------|-------------------------|
G-5--------5--------5--x-x|-6--------6-----6--6-----|-6--------6--6--6--6-----|
D-6--------6--6--6--6--x-x|-6--------6-----6--6-----|-7--------7--7--7--7-----|
A-6-----0--6--6--6--6--x-x|-4-----0--4-----4--4-----|-7-----0--7--7--7--7--0--|
E-4-----0--4--4--4--4--x-x|-4-----0--4-----4--4--5-5|-5-----0--5--5--5--5--0--|

e----------0-----0--------|-------------------------|-------------------------|
B----------0-----0--------|-------------------------|-------------------------|
G----------1-----1--------|-7-----7--7-----7--7-----|-3-----------------------|
D-------2--2--------------|-7-----7--7-----7--7-----|-4-----------------------|
A-2-----2-----------2-----|-5-----5--5-----5--5-----|-4-----------------------|
E-0-----0-----------0-----|----------------------0--|-2-----------------------|

e----------------0--0--0--|-------------------------|
B----------------5--5--5--|(5)^---------------------|
G-------------------------|-------------------------|
D-------------------------|-------------------------|
A-------------------------|-------------------------|
E-------------------------|-------------------------|

| ^  bend string
| /  slide up
| \  slide down
| h  hammer-on
| p  pull-off
| ~  vibrato
| +  harmonic
| x  Mute note
===============================================================================


            
            
Suggest correction
Creating personal tab
Creating personal tab
You can edit any tab online and save it as your Personal.

You can edit, replace or remove any tab part or add personal notes – all changes will be seen only by you.

Personal tabs can be accessed anytime from any device, even offline.
Learn more »
Give kudos to tab author, rate the tab!
1 2 3 4 5
comments
print report bad tab
guest
You may want to rate the tab now too:
select rating
Wanna post a correction for this tab? Suggest correction