Oops, an error
Loading. Please wait.

Defiance Tab

version 1
version 1

Whole song

15,745 views 1 this week
1 commentread comment
1 2 3 4 5
x 4
add to favorites
launch autoscroll
font size
0
reset
how to read this tab
guitar tuner
Autoscroll
slow
fast
+/-
esc
set tempo
stop
Help us to improve Ultimate-Guitar.com Take our survey!
×
Author
Difficulty
Tuning
novice
C# G# C# F# A# D#
-------------------------------------------------------------------------------
                             Defiance - Incubus
-------------------------------------------------------------------------------
Tabbed by: jmo74
Email: jdm0423@gmail.com

Tuning: C# G# C# F# A# D#


   Main Riff:

e|--5-5---7-7---14------14------5-5---7-7---0h2-2-5h2-2--|
B|--6-6-X-8-8-X-15----X-15-X----6-6-X-8-8-X-3---3-3---3--|
G|--5-5-X-7-7-X-14----X-14-X----5-5-X-7-7-X-2---2-2---2--|
D|--0-0-X-0-0-X--0----X--0-X----0-0-X-0-0-X-0---0-0---0--|
A|--0-0-X-0-0-X--0----X--0-X----0-0-X-0-0-X-0---0-0---0--|
E|--0-0---0-0----0-------0------0-0---0-0---0---0-0---0--|

    Verse:

e|-------------------------------------------------|
B|-3-3-X-------3-3-X-------------------------------|
G|-2-2-X-2-2-2-2-2-X-0-0-0-------------------------|
D|-0-0-X-2-2-2-0-0-X-0-0-0-4---4-4-4-4-4---4-4-4-4-|
A|-0-0-X-0-0-0-0-0-X-2-2-2-0---0-0-0-0-0---0-0-0-0-|
E|-------------------------0---0-0-0-0-0---0-0-0-0-|

e|-------------------------------------|
B|-3-3-X-------3-3-X---3-3-3---3-3-3-3-|
G|-2-2-X-2-2-2-2-2-X-0-0-0-0---0-0-0-0-|
D|-0-0-X-2-2-2-0-0-X-0-0-X-X---X-X-X-X-|
A|-0-0-X-0-0-0-0-0-X-2-0-2-3---3-3-3-3-|
E|-------------------------------------|

     Prechorus:

e|-------0-------0--0-0-0-0--------0------------------|
B|-------0--0----1--1-1-1-1--------0--0--2---2-2-2-2--|
G|-------0--0----0--0-0-0-0--------0--0--2---2-2-2-2--|
D|-2--2-----2-2--2--2-2-2-2--2--2-----2--2---2-2-2-2--|
A|-2--2-----2-2--3--3-3-3-3--2--2-----2--0---0-0-0-0--|
E|-2--2-------2--------------2--2---------------------|

     Chorus:

e|--2--2-2-2-2-3--3-3-3-3----------3--3-3-3-3-------------------|
B|--3--3-3-3-3-3--3-3-3-3-3--3--3--3--3-3-3-3-3--3--3--3--3--3--|
G|--2--2-2-2-2-0--0-0-0-0-0--0--0--0--0-0-0-0-0--0--0--0--0--0--|
D|--0--0-0-0-0-X--X-X-X-X-X--X--X--0--0-0-0-0-X--X--X--0--X--X--|
A|--0--0-0-0-0-3--3-3-3-3-2--3--2--X--X-X-X-X-2--3--2--X--2--3--|
E|--0--0-0-0-0---------------------5--5-5-5-5----------5--------|



************************************

| /   slide up
| \   slide down
| h   hammer-on
| p   pull-off
| ~   vibrato
| +   harmonic
| x   Mute note
| b   Bend
| pb  Pre-bend
| br  Bend release
| pbr Pre-bend release
| brb Bend release bend

************************************
Suggest correction
comments
print report bad tab
1 comment total.
+1 reply
Rocky Blunt 31 Aug 04, 2011 11:29 PM

Dude, thanks for posting this tab, but the verse needs some major corrections. Also, the tuning is only 1/2 step down instead of drop C. I've never posted a tab before, but would be glad to try if anyone's interested. Pretty sure I've got this one figured out.

This tab still helped me out though. Not sure I would've gotten the D on the 4th fret during the verse if not for this tab...so thanks.

RB

guest
You may want to rate the tab now too:
select rating
Wanna post a correction for this tab? Suggest correction