Oops, an error
Loading. Please wait.

Diamonds And Coal bass

by Incubus
2,994 views 1 this week
6 commentsread comments
1 2 3 4 5
1 last vote to show rating
add to favorites
×
Save as Personal and add changes to this tab that will be seen only by you. Learn more ›
×
You can save this tab as Personal to edit and correct it or add notes. All changes will be seen only by you. Learn more »
launch autoscroll
font size
0
reset
guitar tuner
edit
Autoscroll
slow
fast
+/-
esc
set tempo
stop
Author
Difficulty
-------------------------------------------------------------------------------
	           Diamonds and Coal Bass Tab - Incubus
                        From Light Grenades
-------------------------------------------------------------------------------

Tabbed By : Nightmare000r
Email- Nightmare000r@aim.com

I tabbed this because I love Incubus and there don't seem to be many tabs for the light 
album.  Not sure how true to the Real song it is, but it sounds good to me.  Pretty 
and theres about 3 main riffs.  Listen to the song for timing.

Tuning:Standard

Intro
G|--------------------------------|---------------------------|
D|--------------------------------|---------------------------|
A|--------------------------------|---------------------------|
E|9---5---9---5---9----3~---------|9---5---9---5---9----3~----|

Verse (x5)
G|------------------------------------|
D|------------------------------------|
A|-------55-44-22-44------------------|
E|5555555------------33333333333333333|

Chorus (x2)
G|------------------------------------|
D|------------------------------------|
A|-------55-44-22-44------------------|
E|5555555------------33333333333333333|

Verse (x4)
G|------------------------------------|
D|------------------------------------|
A|-------55-44-22-44------------------|
E|5555555------------33333333333333333|

Chorus (x4)
G|------------------------------------|
D|------------------------------------|
A|-------55-44-22-44------------------|
E|5555555------------33333333333333333|

Bridge 1 "OHHH"
G|-----------------------------------|
D|-----------------------------------|
A|-----------------------------------|
E|99---5---99---5---99---53~---------|
..."Give it time girl, the fire feels devine"

G|-----------------------------------|
D|-----------------------------------|
A|-----------------------------------|
E|99---5---99---5---99---53~---------|
..."Sweetest things they burn before they shine"

G|-----------------------------------|
D|-----------------------------------|
A|-----------------------------------|
E|99---5---99---5---99----5----------|

G|-----------------------------------|
D|-----------------------------------|
A|-----------------------------------|
E|77---3---77---3---77----3----------|

G|-----------------------------------|
D|-----------------------------------|
A|-----------------------------------|
E|33---1---33---1---33----1----------|

G|----------------|
D|----------------|
A|----------------|
E|0000000000000000|

Bridge 2 (x2)
G|---------------------------------|
D|---------------------------------|
A|---------------------------------|
E|55555555555555-357777777777777777|


Verse (x4)
G|------------------------------------|
D|------------------------------------|
A|-------55-44-22-44------------------|
E|5555555------------33333333333333333|

Outro
G|-----------------------------------|
D|-----------------------------------|
A|-----------------------------------|
E|99---5---77---3---33----1--------0~|

            
            
Suggest correction
Creating personal tab
Creating personal tab
You can edit any tab online and save it as your Personal.

You can edit, replace or remove any tab part or add personal notes – all changes will be seen only by you.

Personal tabs can be accessed anytime from any device, even offline.
Learn more »
Give kudos to tab author, rate the tab!
1 2 3 4 5
comments
print report bad tab
6 comments total. Showing first comments.
0 reply
Fried Cheese 40 Oct 10, 2007 04:04 PM

I have not played this yet but thanks for adding another incubus bass tab from light grenades on ultimate guitar!

0 reply
guitar_gringo_ 10 Oct 11, 2007 11:25 AM

guitar_gringo just added a new tab........wildest 1 u'll ever find......solo,,chords,,,it's art,,its so beautiful

0 reply
slipmaggot93 10 Jul 24, 2008 05:07 PM

i think this is the right chorus

G|------------------
D|------------------
A|---------99775577-
E|--999\555--------3

and this is part of the verse

G|------------------
D|------------------
A|---------99775577-
E|--5555555--------3

guest
You may want to rate the tab now too:
select rating
Wanna post a correction for this tab? Suggest correction