Oops, an error
Loading. Please wait.

Drive Tab

version 1
version 1
by Incubus
95,880 views 66 this week
8 commentsread comments
1 2 3 4 5
x 25
add to favorites
launch autoscroll
font size
0
reset
how to read this tab
guitar tuner
backing track
0:00
0:00
×
Best way to learn
"Drive"
Autoscroll
slow
fast
+/-
esc
set tempo
stop
(about 2:30 into song)

Standard Tuning

e|--------------7-5-3-5--------------------------------|
B|---5-5-5-5------------3-5-5-3--5p3-5--5p3-5----------|
G|-----------------------------------------------------|
D|-----------------------------------------------------|
A|-----------------------------------------------------|
E|-----------------------------------------------------|

e|--3-5-7-7-5-10-7-5-7s5-------------------------------|
B|-------------------------------3-5-5-3---------------|
G|-----------------------------------------------------|
D|-----------------------------------------------------|
A|-----------------------------------------------------|
E|-----------------------------------------------------|

e|---5-5-5-5-3-3---------------------------------------|
B|-----------------5-5-3-3-3-3-5-----------------------|
G|-----------------------------------------------------|
D|-----------------------------------------------------|
A|-----------------------------------------------------|
E|-----------------------------------------------------|


************************************

| p  Pull-off

************************************
Suggest correction
comments
print report bad tab
8 comments total. Showing first comments.
+1 reply
Fufinache 0 Mar 27, 2002 07:00 PM

The last part should be
e555533
B------5533
G----------44/22/4

0 reply
large_dong 10 Jan 12, 2004 07:00 PM

good call fufinache , ur right ,i was about to tell him off . :D

0 reply
Quest 88 Dec 29, 2006 11:28 AM

Dude this is garbage....to me at least..it's all opinion.

guest
You may want to rate the tab now too:
select rating
Wanna post a correction for this tab? Suggest correction