Oops, an error
Loading. Please wait.
We have Chord Pro version of Drive.
It's the closest thing you can get to the original song and it has interactive parts. Check out the tab »
×
by Incubus
2,087,858 views 570 this week
193 commentsread comments
1 2 3 4 5
x 777
add to favorites
×
Save as Personal and add changes to this tab that will be seen only by you. Learn more ›
×
You can save this tab as Personal to edit and correct it or add notes. All changes will be seen only by you. Learn more »
launch autoscroll
font size
0
reset
how to read this tab
guitar tuner
backing track
0:00
0:00
edit
Autoscroll
slow
fast
+/-
esc
set tempo
stop
Drive by Incubus
This is the absolute positively  correct way to play it. 


[Intro, verses, and chorus]

e|-------0-0--------------------------------------|
B|-------8-8------7---------5-5-----5-------------|
G|-------0-0------7---------4-4-------------------|
D|----9--9-9------5---------5-5-----5-------------|
A|-------------7--5----0-3--3-3-------------------|
E|-0------------------------------5-5-------------|

              

[Pre-Chorus and Outro]

e|---------------0--0-0-0----0-----------------------|
B|----5--5--5----2--2-2-2---2-----------------------|
G|----4--4--4----0--0-0-0--0-----------------------|
D|----5--5--5----2--2-2-2--2-----------------------|
A|-3--3--3--3----0--0-0-0-0-----------------------|
E|------------------------------------------------|

                 
[Solo]

e|-----7--5-3--5----------------3-5-7-7-5-10-7-5-7-----|
B|-5-5------------3-5-5-3-5-5-5--------------------5-3-|
G|-----------------------------------------------------|
D|-----------------------------------------------------|
A|-----------------------------------------------------|
E|-----------------------------------------------------|

e|-----------5-5-5-3-3------------------------------|
B|-3-5-5 3------------5-5--3-3----------------------|
G|-----------------------------4--2-0-2-------------|
D|--------------------------------------------------|
A|--------------------------------------------------|
E|--------------------------------------------------|
Suggest correction
Creating personal tab
Creating personal tab
You can edit any tab online and save it as your Personal.

You can edit, replace or remove any tab part or add personal notes – all changes will be seen only by you.

Personal tabs can be accessed anytime from any device, even offline.
Learn more »
comments
print report bad tab
193 comments total. Showing first comments.
0 reply
Jaws 10 Jan 08, 2002 07:00 PM

Hey, i've seen a similar tab to this before, thats how i play it too, and thats how mike plays it for sure, well done. good tab.

0 reply
Jaws 10 Jan 08, 2002 07:00 PM

Wait no, sorry i take it back, i play it differently, close though.

+1 reply
deathgrade 90 Jan 08, 2002 07:00 PM

That's the same way
I play it. U are exactly right.

guest
You may want to rate the tab now too:
select rating
Wanna post a correction for this tab? Suggest correction