Oops, an error
Loading. Please wait.
We have Chord Pro version of Drive.
It's the closest thing you can get to the original song and it has interactive parts. Check out the tab »
×
by Incubus
333,953 views 144 this week
32 commentsread comments
1 2 3 4 5
x 113
add to favorites
×
Save as Personal and add changes to this tab that will be seen only by you. Learn more ›
×
You can save this tab as Personal to edit and correct it or add notes. All changes will be seen only by you. Learn more »
launch autoscroll
font size
0
reset
how to read this tab
guitar tuner
backing track
0:00
0:00
edit
Autoscroll
slow
fast
+/-
esc
set tempo
stop
Author
Difficulty
intermediate
--------------------------------------------------------------------------
                             Drive (acoustic) - Incubus
--------------------------------------------------------------------------
Tabbed by:Rob De'Giovanni
Email:robsg0202@hotmail.com

Tuning:standard

this is an ace song! 

Enjoy and please rate!   

[Intro]

e|-----0-0---x-----------------------0-0---x-------------------------------|
B|-----8-8-8-x---7-----5-5---5-------8-8-8-x---7-----5-5---5---------------|
G|-----0-0-0-x---7-----4-4---4-------0-0-0-x---7-----4-4---4---------------|
D|-----9-9-9-x---5---5-5-5---5-------9-9-9-x---5---5-5-5---5---------------|
A|---7-7-----x—7-7--3------5-------7-7-----x-7-7--3------------------------|
E|--0--------x--------------------0--------x-------------5-----------------|


[Verse 1]

e|-----0-0---x-----------------------0-0---x-------------------------------|
B|-----8-8-8-x---7-----5-5---5-------8-8-8-x---7-----5-5---5---------------|
G|-----0-0-0-x---7-----4-4---4-------0-0-0-x---7-----4-4---4---------------|
D|-----9-9-9-x---5---5-5-5---5-------9-9-9-x---5---5-5-5---5---------------|
A|---7-7-----x—7-7--3------5-------7-7-----x-7-7--3------------------------|
E|--0--------x--------------------0--------x-------------5-----------------|
        Sometimes     I ........  uncertainty stinging clear

e|-----0-0---x-------------------------0-0---x-----------------------------|
B|-----8-8-8-x---7-----5-5---5---------8-8-8-x---7-----5-5---5-------------|
G|-----0-0-0-x---7-----4-4---4---------0-0-0-x---7-----4-4---4-------------|
D|-----9-9-9-x---5---5-5-5---5---------9-9-9-x---5---5-5-5---5-------------|
A|---7-7-----x—7-7--3------5---------7-7-----x-7-7--3----------------------|
E|--0--------x--------------------- 0--------x-------------5---------------|
      And I ...        help............       let the fear    take.. steer  


e|---------------0--0--0-----0----------0----------------------------------|
B|-5---5--5-5----0--2--2--2--2—-0h2—0h2-2----------------------------------|
G|-4---4--4-4----0--0--0--0--0--0---0---0----------------------------------|
D|-5---5--5-5----0--2--2--2--2--2---2---2----------------------------------|
A|-3---3--3-3--------------------------------------------------------------|
E|-------------------------------------------------------------------------|
           Its ... before and it seems to have a  

e|---------------0--0--0-----0----------0----------------------------------|
B|-5---5--5-5----0--2--2--2--2—-0h2-0h2-2----------------------------------|
G|-4---4--4-4----0--0--0--0--0--0---0---0----------------------------------|
D|-5---5--5-5----0--2--2--2--2--2---2---2----------------------------------|
A|-3---3--3-3--------------------------------------------------------------|
E|-------------------------------------------------------------------------|
    vague            haunting mass appeal     

e|---------------0--0--0-----0----------0----------------------------------|
B|-5---5--5-5----0--2--2--2--2—-0h2—0h2-2----------------------------------|
G|-4---4--4-4----0--0--0--0--0--0---0---0----------------------------------|
D|-5---5--5-5----0--2--2--2--2--2---2---2----------------------------------|
A|-3---3--3-3--------------------------------------------------------------|
E|-------------------------------------------------------------------------|
           But ... I'm   beginning to find that 

e|---------------0-----0-----0----------0----------------------------------|
B|-5---5--5-5----0-----2-----2—-0h2—0h2-2----------------------------------|
G|-4---4--4-4----0-----0-----0--0---0---0----------------------------------|
D|-5---5--5-5----0-----2—----2--2---2---2----------------------------------|
A|-3---3--3-3--------------------------------------------------------------|
E|-------------------------------------------------------------------------|
    I               Should be the one behind the wheel 


[Chorus]

e|-----0-0---x-----------------------0-0---x-------------------------------|
B|-----8-8-8-x---7-----5-5---5-------8-8-8-x---7-----5-5---5---------------|
G|-----0-0-0-x---7-----4-4---4-------0-0-0-x---7-----4-4---4---------------|
D|-----9-9-9-x---5---5-5-5---5-------9-9-9-x---5---5-5-5---5---------------|
A|---7-7-----x—7-7--3------5-------7-7-----x-7-7--3------------------------|
E|--0--------x--------------------0--------x-------------5-----------------|
       Whatever ....     brings I'll be there...  arms   eyes yeah 

e|-----0-0---x-----------------------0-0---x-------------------------------|
B|-----8-8-8-x---7-----5-5---5-------8-8-8-x---7-----5-5---5---------------|
G|-----0-0-0-x---7-----4-4---4-------0-0-0-x---7-----4-4---4---------------|
D|-----9-9-9-x---5---5-5-5---5-------9-9-9-x---5---5-5-5---5---------------|
A|---7-7-----x—7-7--3------5-------7-7-----x-7-7--3------------------------|
E|--0--------x--------------------0--------x-------------5-----------------|
       Whatever......     brings I'll be there  I'll be there


[Verse 2]

e|-----0-0---x-----------------------0-0---x-------------------------------|
B|-----8-8-8-x---7-----5-5---5-------8-8-8-x---7-----5-5---5---------------|
G|-----0-0-0-x---7-----4-4---4-------0-0-0-x---7-----4-4---4---------------|
D|-----9-9-9-x---5---5-5-5---5-------9-9-9-x---5---5-5-5---5---------------|
A|---7-7-----x—7-7--3------5-------7-7-----x-7-7--3------------------------|
E|--0--------x--------------------0--------x-------------5-----------------|
       So If I.........    waver my...     to be one of  the hive 

e|-----0-0---x-----------------------0-0---x-------------------------------|
B|-----8-8-8-x---7-----5-5---5-------8-8-8-x---7-----5-5---5---------------|
G|-----0-0-0-x---7-----4-4---4-------0-0-0-x---7-----4-4---4---------------|
D|-----9-9-9-x---5---5-5-5---5-------9-9-9-x---5---5-5-5---5---------------|
A|---7-7-----x—7-7--3------5-------7-7-----x-7-7--3------------------------|
E|--0--------x--------------------0--------x-------------5-----------------|
      Would    I .....    wine and hold my ...drive

e|---------------0--0--0--0--0----------0----------------------------------|
B|-5---5--5-5----0--2--2--2--2—-0h2—0h2-2----------------------------------|
G|-4---4--4-4----0--0--0--0--0--0---0---0----------------------------------|
D|-5---5--5-5----0--2--2--2--2--2---2---2----------------------------------|
A|-3---3--3-3--------------------------------------------------------------|
E|-------------------------------------------------------------------------|
           Its ... before and it seems to be the  

e|---------------0--0--0--0--0----------0----------------------------------|
B|-5---5--5-5----0--2--2--2--2—-0h2-0h2-2----------------------------------|
G|-4---4--4-4----0--0--0--0--0--0---0---0----------------------------------|
D|-5---5--5-5----0--2--2--2--2--2---2---2----------------------------------|
A|-3---3--3-3--------------------------------------------------------------|
E|-------------------------------------------------------------------------|
    way           that everyone else gets around     

e|---------------0--0--0--0--0----------0----------------------------------|
B|-5---5--5-5----0--2--2--2--2—-0h2—0h2-2----------------------------------|
G|-4---4--4-4----0--0--0--0--0--0---0---0----------------------------------|
D|-5---5--5-5----0--2--2--2--2--2---2---2----------------------------------|
A|-3---3--3-3--------------------------------------------------------------|
E|-------------------------------------------------------------------------|
          But lately...      beginning to find that 

e|---------------0-----0-----0----------0----------------------------------|
B|-5---5--5-5----0-----2-----2—-0h2—0h2-2----------------------------------|
G|-4---4--4-4----0-----0-----0--0---0---0----------------------------------|
D|-5---5--5-5----0-----2—----2--2---2---2----------------------------------|
A|-3---3--3-3--------------------------------------------------------------|
E|-------------------------------------------------------------------------|
    When I drive        myself   my light is found


[Chorus]

e|-----0-0---x-----------------------0-0---x-------------------------------|
B|-----8-8-8-x---7-----5-5---5-------8-8-8-x---7-----5-5---5---------------|
G|-----0-0-0-x---7-----4-4---4-------0-0-0-x---7-----4-4---4---------------|
D|-----9-9-9-x---5---5-5-5---5-------9-9-9-x---5---5-5-5---5---------------|
A|---7-7-----x—7-7--3------5-------7-7-----x-7-7--3------------------------|
E|--0--------x--------------------0--------x-------------5-----------------|
       Whatever     ...  brings I'll be there    arms...eyes yeah 


e|-----0-0---x-----------------------0-0---x-------------------------------|
B|-----8-8-8-x---7-----5-5---5-------8-8-8-x---7-----5-5---5---------------|
G|-----0-0-0-x---7-----4-4---4-------0-0-0-x---7-----4-4---4---------------|
D|-----9-9-9-x---5---5-5-5---5-------9-9-9-x---5---5-5-5---5---------------|
A|---7-7-----x—7-7--3------5-------7-7-----x-7-7--3------------------------|
E|--0--------x--------------------0--------x-------------5-----------------|
       Whatever     ....  brings I'll be there    I'll be there


[Solo]
(it's the same guitar playing but if you listen the solo actually comes in whilst the chorus is 
Still being played, I guess this first bar is optional but I tabbed it just so you know its there)


e|-------------------------------------------------------------------------|
B|-------------------------------------------------------------------------|
G|------------------------------------------------------9--9--9------------|
D|-------------------------------------------------------------------------|
A|-------------------------------------------------------------------------|
E|-------------------------------------------------------------------------|

e|--------------------------------------------------------10---------------|
B|----12—-10s8~--10----------------------8s10 10-12-12-10---12-10-12-------|
G|-9~---------------7-9-9-7--9-9--9-9--------------------------------9s7-7-|
D|-------------------------------------------------------------------------|
A|-------------------------------------------------------------------------|
E|-------------------------------------------------------------------------|

e|-------------------------------------------------------------------------|
B|--------10-10-8-8--------------------------------------------------------|
G|-9-9-7------------9-9-7--------------------------------------------------|
D|------------------------9s7-7s9------------------------------------------|
A|-------------------------------------------------------------------------|
E|-------------------------------------------------------------------------|

 
e|----------0--0---0---0-------------0------------------------------------| 
B|----------2--2---2---2----0h2—0h2--2-------------------------------------|
G|----------0--0---0---0----0----0---0-------------------------------------|
D|----------2--2---2---2----2----2---2-------------------------------------|
A|-------------------------------------------------------------------------|
E|-------------------------------------------------------------------------|
    Would you choose           water over
e|---------------0-----0----------------0----------------------------------|
B|-5---5--5-5----0-----2----------------2----------------------------------|
G|-4---4--4-4----0-----0----------------0----------------------------------|
D|-5---5--5-5----0-----2—---------------2----------------------------------|
A|-3---3--3-3--------------------------------------------------------------|
E|-------------------------------------------------------------------------|
    wine              hold the wheel and drive


[Chorus]

e|-----0-0---x-----------------------0-0---x-------------------------------|
B|-----8-8-8-x---7-----5-5---5-------8-8-8-x---7-----5-5---5---------------|
G|-----0-0-0-x---7-----4-4---4-------0-0-0-x---7-----4-4---4---------------|
D|-----9-9-9-x---5---5-5-5---5-------9-9-9-x---5---5-5-5---5---------------|
A|---7-7-----x—7-7--3------5-------7-7-----x-7-7--3------------------------|
E|--0--------x--------------------0--------x-------------5-----------------|
       Whatever     ....  brings I'll be there... arms   eyes yeah 


e|-----0-0---x-----------------------0-0---x-------------------------------|
B|-----8-8-8-x---7-----5-5---5-------8-8-8-x---7-----5-5---5---------------|
G|-----0-0-0-x---7-----4-4---4-------0-0-0-x---7-----4-4---4---------------|
D|-----9-9-9-x---5---5-5-5---5-------9-9-9-x---5---5-5-5---5---------------|
A|---7-7-----x—7-7--3------5-------7-7-----x-7-7--3------------------------|
E|--0--------x--------------------0--------x-------------5-----------------|
       Whatever     ..... brings I'll be there   I'll be there


[Outro]

e|-----0-0---x-----------------------0-0---x-------------------------------|
B|-----8-8-8-x---7-----5-5---5-------8-8-8-x---7-----5-5---5---------------|
G|-----0-0-0-x---7-----4-4---4-------0-0-0-x---7-----4-4---4---------------|
D|-----9-9-9-x---5---5-5-5---5-------9-9-9-x---5---5-5-5---5---------------|
A|---7-7-----x—7-7--3------5-------7-7-----x-7-7--3------------------------|
E|--0--------x--------------------0--------x-------------5-----------------|
               


e|-----0-0---x-----------------------0-0---x-------------------------------|
B|-----8-8-8-x---7-----5-5---5-------8-8-8-x---7-----5-5---5---------------|
G|-----0-0-0-x---7-----4-4---4-------0-0-0-x---7-----4-4---4---------------|
D|-----9-9-9-x---5---5-5-5---5-------9-9-9-x---5---5-5-5---5---------------|
A|---7-7-----x—7-7--3------5-------7-7-----x-7-7--3------------------------|
E|--0--------x--------------------0--------x-------------5-----------------|
       

e|---------------0-----0---------------------------------------------------|
B|-5---5--5-5----0-----2---------------------------------------------------|
G|-4---4--4-4----0-----0---------------------------------------------------|
D|-5---5--5-5----0-----2—--------------------------------------------------|
A|-3---3--3-3--------------------------------------------------------------|
E|-------------------------------------------------------------------------| 


************************************

| x  Dead note
| h  Hammer-on
| ~  Vibrato
| s  Slide

************************************

            
            
Suggest correction
Creating personal tab
Creating personal tab
You can edit any tab online and save it as your Personal.

You can edit, replace or remove any tab part or add personal notes – all changes will be seen only by you.

Personal tabs can be accessed anytime from any device, even offline.
Learn more »
comments
print report bad tab
32 comments total. Showing first comments.
0 reply
jjrawson 20 Aug 01, 2005 08:00 PM

HEY!! It's Josh!! that looks bl**dy complicated!!!!! AARRRHH but i trust you coz i kno ure ACE!!! lol We need to get together and jam boyo!!

0 reply
BoB DiDge 71 Aug 02, 2005 08:00 PM

hey josh, was it u that rated it? cool that u commented, are your tabs up yet?

-1 reply
jjrawson 20 Aug 02, 2005 08:00 PM

I didnt rate it no soz that must be some one else. MY TAB ISNT UP YET !! ARRHHH

guest
You may want to rate the tab now too:
select rating
Wanna post a correction for this tab? Suggest correction