Oops, an error
Loading. Please wait.

Echo Tab

version 5
version 5

Whole song

Interactive

4,974 views 33 this week
1 commentread comment
1 2 3 4 5
excellent!
x 5
add to favorites
launch autoscroll
font size
0
reset
how to read this tab
guitar tuner
Autoscroll
slow
fast
+/-
esc
set tempo
stop
Help us to improve Ultimate-Guitar.com Take our survey!
×
Author
Difficulty
Tuning
intermediate
D A D G B E
Drop D tuning
-Watched Mike Einziger play on this on his youtube video, tabbed it here.
Enjoy :) Should be 100% correct.
Video: (http://www.youtube.com/watch?v=25DIHP_pcok&feature=relmfu)
  /          slide
  h          hammer on
  p          pull off
  ~          vibrato
  9(10)9     bend and release
  (5)        optional


                               Echo
                           Morning View
Intro: x4
e|-----------------------------------------------------------|
B|-----------------------------------------------------------|
G|------------2----2/4----4/7----7/9----9(10)9/7----7--------|
D|------------2----2/4----4/7----7/9----9(10)9/7----7--------|
A|--------0---------------------------------------------0----|
D|----0------------------------------------------------------|

                                       |-----fast--------|
e|------------------------------------------------------0--|
B|------------------------------------------------------0--|
G|----4----4--4/7---------7/4-----------4--4(5)4/2---2--2--|
D|----4----4--4/7---------7/4------(4)--4--4(5)4/2---2--2--|
A|----2----2--2/5---(5)---5/2---2----------------------(0)-|
D|---------------------------------------------------------|



Verse    x1                                                              x4
e|--0------|-------------0---------------(0)--0----------------------------|
B|---0-----|----------0-----0------------3-------3-------------------------|
G|----2----|-------2-----------2--------4-----------4----------4/2---/2----|
D|-----4---|----4-----------------4----4---------------4-------4/2--2/4----|
A|------0--|-0------------------------2-------------------2----------------|
D|---------|---------------------------------------------------------------|



Pre-Chorus     x2
e|---------2-------------2-------------1-------------1------|
B|---------0-------------0-------------1-------------1------|
G|---------0-------------0-------------0-------------0------|
D|--------(0)-----------(0)-----------(0)-----------(0)-----|
A|----5-------------5-------------3-------------3-----------|
D|--5---5---------5---5---------3---3---------3---3---------|



Chorus (Same as Intro)  x4
e|-----------------------------------------------------------|
B|-----------------------------------------------------------|
G|------------2----2/4----4/7----7/9----9(10)9/7----7--------|
D|------------2----2/4----4/7----7/9----9(10)9/7----7--------|
A|--------0---------------------------------------------0----|
D|----0------------------------------------------------------|

                                       |-----fast--------|
e|------------------------------------------------------0--|
B|------------------------------------------------------0--|
G|----4----4--4/7---------7/4-----------4--4(5)4/2---2--2--|
D|----4----4--4/7---------7/4------(4)--4--4(5)4/2---2--2--|
A|----2----2--2/5---(5)---5/2---2----------------------(0)-|
D|---------------------------------------------------------|





Solo (entirely using harmonic/octave picking - 12 frets up)
e|---7-------------------------------------------------------|
B|------10~--7~----------------------------------------------|
G|---------------9~--7~--------------------------------------|
D|-----------------------9~--7~--9~--------------------------|
A|--------------------------------------------7~--9~--7~-----|
D|-----------------------------------------------------------|

e|-----------------------------------------------------------|
B|-----------------------------------------------------7~----|
G|-------------------7~--9~--7~--------7~--9~--7~--9~--------|
D|-----------7~--9~------------------------------------------|
A|---7~--9~--------------------------------------------------|
D|-----------------------------------------------------------|

e|----7---------------------------------|     Mike bends/vibratos a lot
B|--------10~--7~-----------------------|       through the solo to give
G|-----------------9(10)9~--7~----------|       it the "eastern" sound.
D|------------------------------9~--7~~~|
A|--------------------------------------|          -originates from the
D|--------------------------------------|           pentatonic scale




Verse again                        x4
e|--0------|-------------0---------------(0)--0----------------------------|
B|---0-----|----------0-----0------------3-------3-------------------------|
G|----2----|-------2-----------2--------4-----------4----------4/2---/2----|
D|-----4---|----4-----------------4----4---------------4-------4/2--2/4----|
A|------0--|-0------------------------2-------------------2----------------|
D|---------|---------------------------------------------------------------|
        x1


Pre-Chorus again    x2
e|---------2-------------2-------------1-------------1------|
B|---------0-------------0-------------1-------------1------|
G|---------0-------------0-------------0-------------0------|
D|--------(0)-----------(0)-----------(0)-----------(0)-----|
A|----5-------------5-------------3-------------3-----------|
D|--5---5---------5---5---------3---3---------3---3---------|



Chorus again        x4
e|-----------------------------------------------------------|
B|-----------------------------------------------------------|
G|------------2----2/4----4/7----7/9----9(10)9/7----7--------|
D|------------2----2/4----4/7----7/9----9(10)9/7----7--------|
A|--------0---------------------------------------------0----|
D|----0------------------------------------------------------|

                                       |-----fast--------|
e|------------------------------------------------------0--|
B|------------------------------------------------------0--|
G|----4----4--4/7---------7/4-----------4--4(5)4/2---2--2--|
D|----4----4--4/7---------7/4------(4)--4--4(5)4/2---2--2--|
A|----2----2--2/5---(5)---5/2---2----------------------(0)-|
D|---------------------------------------------------------|



Outro
e|----0----|----0--------------------|
B|----0----|-------0-----------------|
G|----2----|----------2--------------|
D|----4----|-------------4-----------|
A|----0----|----------------0--------|
D|---(0)---|------------------(0)----|


Tabbed by: Incubus1892
Suggest correction
comments
print report bad tab
1 comment total.
0 reply
edge_89 10 wrote on April 14 2014, 07:54 pm

This is the only (current) tab playing this song in drop D, which is the CORRECT way: https://www.youtube.com/watch?v=kIpf8t8EGJg (time: 9 seconds in the video)
The actual tab is a good 95% correct (nothing really major missing), so this is the best tab on this site for "Echo" by Incubus.

guest
You may want to rate the tab now too:
select rating
Wanna post a correction for this tab? Suggest correction