Oops, an error
Loading. Please wait.

I Miss You Tab

version 3
version 3

Whole song

Interactive

97,680 views 87 this week
no commentswrite comment
1 2 3 4 5
x 6
add to favorites
launch autoscroll
font size
0
reset
how to read this tab
guitar tuner
Autoscroll
slow
fast
+/-
esc
set tempo
stop
Help us to improve Ultimate-Guitar.com Take our survey!
×
Author
Tuning
  follow
D G C F A D
Tabbed by: S.Jones

Incubus
I Miss You (Acoustic)

There are a number of tabs for this song, but each of them seems to have some
parts right and others wrong, so I put together a mixture of all of them. Sounds
right to me, feel free to make any corrections. This is my first tab, so go easy on me!

Dropped D tuning

[Introduction, verse, chorus] Repeat
D|-------------------------------------------|
A|-------------------------------------------|
F|-------------------------------------7+----|
C|----------0-----------------0-----0--------|
G|-------4-----4-----4-----4-----4-----------|
D|----0-----------0-----5--------------------|

[Bridge]
D|--------------------------------0000-00-----|
A|--------0-----------------------5555-55-----|
F|----------0------------0--------0000-00-----|
C|------4-----4--------5-----0----4444-440----| Play the last open D 
G|----2---------2----5-------0----5555-55-----| lightly;
D|-----------------5---------0----------------|

D|--------------------------------101010--1010----| The fret on this string
A|----------0-------------------------------------| is 10, not 1, 0;
F|--------0--------------0--------7-7-7---7-7-0---| Play the last open G
C|------4-----4--------5----0-----0-0-0---0-0-----| lightly;
G|----2---------2----5------0---------------------|
D|-----------------5--------0---------------------|

D|----------------------------------------|
A|----------0-----------------------------|
F|--------0--------------0-------4-440----|
C|------4-----4--------5----0-00-4-44-----|
G|----2---------2----5------0-00-2-22-----|
D|-----------------5--------0-00----------|

D|--------------------------------|
A|--------------------------------|
F|------------------p-------------|
C|----4---555-5---5544-445-554----|
G|----5---555-5---5555-555-555----|
D|----5---555-5---5555-555-555----|

D|---------5--|
A|--------3---|
F|-------2----|
C|------0-----|
G|-----0------|
D|----0-------| This is played at the very end of the song.

************************************

| p  Pull-off

************************************
Suggest correction
comments
print report bad tab
guest
You may want to rate the tab now too:
select rating
Wanna post a correction for this tab? Suggest correction