Oops, an error
Loading. Please wait.

I Miss You Acoustic tab

version 5
by Incubus
145,603 views 45 this week
12 commentsread comments
1 2 3 4 5
x 67
add to favorites
×
Save as Personal and add changes to this tab that will be seen only by you. Learn more ›
×
You can save this tab as Personal to edit and correct it or add notes. All changes will be seen only by you. Learn more »
launch autoscroll
font size
0
reset
how to read this tab
guitar tuner
edit
Autoscroll
slow
fast
+/-
esc
set tempo
stop
[Intro]

e|-------------------------|
B|-------------------------|
G|----------------------*7-|  x4
D|-----0-----------0---0---|
A|---4---4---4---4---4-----|
D|-0-------0---5-----------|


[Verse]

e|-------------------------|
B|-------------------------|
G|----------------------*7-|  x7
D|-----0-----------0---0---|
A|---4---4---4---4---4-----|
D|-0-------0---5-----------|

e|-------------------------|
B|-------------------------|
G|-------------------------|  
D|-----0-----------0---0---|
A|---4---4---4---4---4-----|
D|-0-------0---5-----------|


[Chorus]

e|-------------|-------------|-------0-0---|-0-----0-0-0-|
B|-----0-------|-------------|-------5-5---|-5-----5-5-5-|
G|-------0-----|-------0-----|-------0-0---|-0-----0-0-0-|
D|---4-----4---|-----5-5-5-5-|-4-----4-4---|-4-----4-4-4-|
A|-2---------0-|---5---5-5-5-|-0-----5-5---|-5-----5-5-5-|
D|-------------|-5-------5-5-|-0-----------|-------------|

e|-------------|-------------|--------10---|10----1010---|
B|-----0-------|-------------|---------x---|-x-----x-x---|
G|-------0-----|-------0-----|---------7---|-7-----7-7---|
D|---4-----4---|-----5-5-5-5-|-4-------0---|-0-----0-0---|
A|-2---------0-|---5---5-5-5-|-0-----------|-------------|
D|-------------|-5-------5-5-|-0-----------|-------------|

e|-------------|-------------|-------------|-------------|
B|-----0-------|-------------|-------------|-------------|
G|-------0-----|-------0-----|-------------|-4-----4-4-4-|
D|---4-----4---|-----5-5-5-5-|-4------4-4--|-4-----4-4-4-|
A|-2---------0-|---5---5-5-5-|-0------0-0--|-2-----2-2-2-|
D|-------------|-5-------5-5-|-0------0-0--|-------------|

e|-------------|-------------|-------------|-------------|
B|-------------|-------------|-------------|-------------|
G|-------------|-------------|-------------|-------------|
D|-4-----4-4-5-|-5-----5-5-4-|-4-----4-4-4-|-4-----4-4-4-|
A|-5-----5-5-5-|-5-----5-5-5-|-5-----5-5-5-|-5-----5-5-5-|
D|-5-----5-5-5-|-5-----5-5-5-|-5-----5-5-5-|-5-----5-5-5-|


[Verse]

e|-------------------------|
B|-------------------------|
G|----------------------*7-| x15
D|-----0-----------0---0---|
A|---4---4---4---4---4-----|
D|-0-------0---5-----------|

e|-------------------------|
B|-------------------------|
G|-------------------------|
D|-----0-----------0---0---|
A|---4---4---4---4---4-----|
D|-0-------0---5-----------|


[Chorus]

e|-------------|-------------|-------0-0---|-0-----0-0-0-|
B|-----0-------|-------------|-------5-5---|-5-----5-5-5-|
G|-------0-----|-------0-----|-------0-0---|-0-----0-0-0-|
D|---4-----4---|-----5-5-5-5-|-4-----4-4---|-4-----4-4-4-|
A|-2---------0-|---5---5-5-5-|-0-----5-5---|-5-----5-5-5-|
D|-------------|-5-------5-5-|-0-----------|-------------|

e|-------------|-------------|--------10---|10----1010---|
B|-----0-------|-------------|---------x---|-x-----x-x---|
G|-------0-----|-------0-----|---------7---|-7-----7-7---|
D|---4-----4---|-----5-5-5-5-|-4-------0---|-0-----0-0---|
A|-2---------0-|---5---5-5-5-|-0-----------|-------------|
D|-------------|-5-------5-5-|-0-----------|-------------|

e|-------------|-------------|-------------|-------------|
B|-----0-------|-------------|-------------|-------------|
G|-------0-----|-------0-----|-------------|-4-----4-4-4-|
D|---4-----4---|-----5-5-5-5-|-4------4-4--|-4-----4-4-4-|
A|-2---------0-|---5---5-5-5-|-0------0-0--|-2-----2-2-2-|
D|-------------|-5-------5-5-|-0------0-0--|-------------|

e|-------------|-------------|-------------|-------------|
B|-------------|-------------|-------------|-------------|
G|-------------|-------------|-------------|-------------|
D|-4-----4-4-5-|-5-----5-5-4-|-4-----4-4-4-|-4-----4-4-4-|
A|-5-----5-5-5-|-5-----5-5-5-|-5-----5-5-5-|-5-----5-5-5-|
D|-5-----5-5-5-|-5-----5-5-5-|-5-----5-5-5-|-5-----5-5-5-|


[Outro]

                           x4          
e||-------------------------||------5------|
B||-------------------------||-----3-------|
G||----------------------*7-||----2--------|
D||-----0-----------0---0---||---0---------|
A||---4---4---4---4---4-----||--0----------|
D||-0-------0---5-----------||-0-----------|


Other notes:
In the chorus, you can see:

e|-------------|-------------|--------10---|10----10-10---|
B|-------------|-------------|-------------|--------------|
G|-------------|-------------|-------------|--------------|
D|-------------|-------------|-------------|--------------|
A|-------------|-------------|-------------|--------------|
E|-------------|-------------|-------------|--------------|



************************************

| x  Dead note
| *  Harmonic 

************************************

            
            
Suggest correction
Creating personal tab
Creating personal tab
You can edit any tab online and save it as your Personal.

You can edit, replace or remove any tab part or add personal notes – all changes will be seen only by you.

Personal tabs can be accessed anytime from any device, even offline.
Learn more »
comments
print report bad tab
12 comments total. Showing first comments.
0 reply
Beeen 10 May 24, 2004 08:00 PM

the harmonic is on the 5th fret i think.
good work !! :D

+2 reply
VampiricDreams 10 Jun 19, 2004 08:00 PM

In fact you can play the harmonic on 5th fret of the D string (4th) or on the 7th fret of the G string (5th). It's the same harmonic.

0 reply
Mert 71 Dec 12, 2005 10:11 AM

good tab

guest
You may want to rate the tab now too:
select rating
Wanna post a correction for this tab? Suggest correction