Oops, an error
Loading. Please wait.

Isadore Tab

version 1
version 1

Whole song

Interactive

32,865 views 21 this week
9 commentsread comments
1 2 3 4 5
excellent!
x 6
add to favorites
launch autoscroll
font size
0
reset
how to read this tab
guitar tuner
Tab Pro tools
  • play this tab
  • loop segment
  • change instrument
  • show fretboard
  • metronome
×
Best way to learn
"Isadore"
Autoscroll
slow
fast
+/-
esc
set tempo
stop
Contributor
Incubus 
Isadore
If Not Now, When
Tabbed by: Earwood


Notes:
======
There are (at least) 3 guitar tracks on the album version, the main track is the 
acoustic in the right channel, an overdriven electric with slap-back reverb in the 
left channel, and the heavily overdriven lead guitar. During the intro & verse, 
Mike slides from G# to A# on the right acoustic track, and from D# to F on the 
left electric. However, he plays these simultaneously live. The stars represent 
the aforementioned notes.


Capo on 1st (Notes in Relation to Capo)



Intro/Verse
                    (******)
|--------------------------------------------------------|
|-------1--0---1-----3/5--5------------------------------|
|-------0--0---0--0----------0-0----2--0--2--0-----------|
|-------2--2---2--0--5/7--7--0-0----0--0--0--0------0----|
|--0-0--0--0---0--------------------x--x--x--x--0h2------|
|--------------------------------3-----------------------|
   
                    (******)
|--------------------------------------------------------|
|-------1--0---1-----3/5--5------------------------------|
|-------0--0---0--0----------0-0----2--0--2--0-----------|
|-------2--2---2--0--5/7--7--0-0----0--0--0--0-----------|
|--0-0--0--0---0--------------------x--x--x--x--3-2h3p2--|
|--------------------------------3-----------------------|


Prechorus  (3x)                                End on
|----------------------------------------------|-(5)-|
|------1--1---1-----1--1-1---------------------|--6--|
|--5---2--0h2-0--0--0--0-0--0-0--7--7--7--7-7--|--7--|
|--3---3--3---0--0--2--2-2--0-0--x--x--x--x-x--|--7--|
|--3---3--3---3--0--3--3-3--0-0--5--5--5--5-5--|--5--|
|--5-----------------------------6--6--6--6-6--|-----|


Chorus
|-----1--0-1-0---------------------------------------------------|
|--3--3--3-3-3------1--1-1-1--------1--0-1-0---3/5---------------|
|--2--2--2-2-2---2--2--0-2-0--------2--2-2-2---------0-2--0-2-0--|
|--0-------------3--3--3-3-3--------2--2-2-2---5/7---0-0--0-0-0--|
|--------------------------------0-------------------------------|
|----------------1-----------0-3-------------------3-------------|

[Verse]
[Prechorus]
[Chorus]

Lead Pt. I
|---------------------------------|------------------------------|
|---------------------------------|------------------------------|
|---------------------------------|------------------------------|
|------7---------------7----------|------7-----------------------|
|--5-5---5--7b-7---5-5---5--7b-7--|--5-5---5--7--\3---3-3--------|
|---------------------------------|-----------------5-----5--5---|

|--------------------------------------------------------------------17---------|
|-----------------------------------------------------------------------15--17~-|
|-5-5-5-0-0-2-2--2---5-0--2--2---5-0--2-2/9-9-9-9/12-12-12--12-12-12------------|
|-------------------------------------------------------------------------------|
|-------------------------------------------------------------------------------|
|-------------------------------------------------------------------------------|

     (4x)
|---------------|-------------------------------------------------------------|
|------15--17~--|-17~--17-17--17-17-17-17-17-17-17-17-17-17-17-17-17-17-17-17-|
|-/14-----------|-------------------------------------------------------------|
|---------------|-------------------------------------------------------------|
|---------------|-------------------------------------------------------------|
|---------------|-------------------------------------------------------------|

[Chorus]

Lead Pt. II
|------------------------------------------------------------------|
|--10-------------10-----------10-----------------------13---------|
|-----7--9b-br9-7----7--9b---7----7\5-4b(5)r---2-2-2/12----12--14~-|
|------------------------------------------------------------------|
|------------------------------------------------------------------|
|------------------------------------------------------------------|

|-------------------------------------------------------------12-----17----------|
|-------13----------------13--------/17-17-17-17\15-15-15--15----15-----15--17br-|
|-14-12----12--14---14-14----12-14-----------------------------------------------|
|--------------------------------------------------------------------------------|
|--------------------------------------------------------------------------------|
|--------------------------------------------------------------------------------|

|-----17---------------17----------------------------------|
|--15----15-17br----15----15\13--12b(13)r---10-10-10---10--|
|----------------------------------------------------------|
|----------------------------------------------------------|
|----------------------------------------------------------|
|----------------------------------------------------------|

|--17---------------17-------------17----------------|
|-----15-17br----15----15--17br-------15\12b(13)r~---|
|----------------------------------------------------|
|----------------------------------------------------|
|----------------------------------------------------|
|----------------------------------------------------|
comments
print report bad tab
9 comments total. Showing first comments.
-1 reply
mojoman0 wrote on July 13 2011, 08:19 pm

pretty good intro but I'm pretty sure the 5/7 is wrong. It sounds higher. To me it sounds like it should be 3/5 on the 2nd string which also flows from his fingering and ends at the same notes as you listed.

0 reply
mojoman0 wrote on July 13 2011, 08:25 pm

|--------------------------------------------------------|
|-------1--0---1--0--3/5--5--x-x-------------------------|
|-------0--0---0--0-------0--x-x-----2--0--2--0----------|
|-------2--2---2--0----------x-x-----0--0--0--0------0---|
|--0-0--0--0---0---------------------x--x--x--x--0h2-----|
|--------------------------------3-----------------------|

sounds more like it

0 reply
GuitarPoop wrote on July 18 2011, 08:16 pm

That sounds better mojo. I've actually been doing this for the high Bbm sounding chord

---0-
-3/5-
---0-
-3/5-
-----
-----


This video helps out a good bit
http://www.youtube.com/watch?v=w0qebtIGPL4

I want to post or [tab]
guest
You may want to rate the tab now too:
select rating
Please do not post tabs as comments. Select "correction" instead!