Oops, an error
Loading. Please wait.

Loneliest bass

by Incubus
148 views 1 this week
no commentswrite comment
1 2 3 4 5
1 last vote to show rating
add to favorites
×
Save as Personal and add changes to this tab that will be seen only by you. Learn more ›
×
You can save this tab as Personal to edit and correct it or add notes. All changes will be seen only by you. Learn more »
launch autoscroll
font size
0
reset
guitar tuner
edit
Autoscroll
slow
fast
+/-
esc
set tempo
stop
About this tab version
There is no bass in the song, so I transcribed the verse riff from guitar and the rest from the synth bass. Was this info helpful? Yes No
[Verse] (Transcribed from guitar to bass)

   1 ^ + ^ 2 ^ + ^ 3 ^ + ^ 4 ^ + ^   1 ^ + ^ 2 ^ + ^ 3 ^ + ^ 4 ^ + ^
G|-------6h8---8-8---6---------4---|---------------------4-----4-----|
D|-----------------------4-6-------|---------2---------------6-------|
A|-4-------------------------------|-------------4--------------(2)--|
E|---------------------------------|-0-------------4---4-------------| (x4)


[Vocal line]

   1 ^ + ^ 2 ^ + ^ 3 ^ + ^ 4 ^ + ^     1 ^ + ^ 2 ^ + ^ 3 ^ + ^ 4 ^ + ^
G|-------------------------------6h8-|-----6---4-----------------------|
D|---------------------------4-6-----|-------------6---6-4---------6-6-|
A|-----------------------------------|---------------------4-----------|
E|-----------------------------------|---------------------------------|
                           I'm the lone-   liest I've ever been    tonight

   1 ^ + ^ 2 ^ + ^ 3 ^ + ^ 4 ^ + ^     1 ^ + ^ 2 ^ + ^ 3 ^ + ^ 4 ^ + ^
G|-------------------------------6h8-|-----6---4-----------------------|
D|---------------------------4-6-----|-------------6---6-4-------------|
A|-----------------------------------|---------------------4-------4-4-|
E|-----------------------------------|---------------------------------|
                           I'm the lone-   liest I've ever been    thats right


[Chorus]

   1 ^ + ^ 2 ^ + ^ 3 ^ + ^ 4 ^ + ^   1 ^ + ^ 2 ^ + ^ 3 ^ + ^ 4 ^ + ^
G|---------------------------------|---------------------------------|
D|---------------------------------|---------------------------------|
A|---------------------------------|---------------------------------|
E|-5-------------------------------|---------2-----------------------|

   1 ^ + ^ 2 ^ + ^ 3 ^ + ^ 4 ^ + ^   1 ^ + ^ 2 ^ + ^ 3 ^ + ^ 4 ^ + ^
G|---------------------------------|---------------------------------|
D|---------------------------------|---------------------------------|
A|-4-------------------------------|---------------------------------|
E|---------------------------------|---------0-----------------------|

   1 ^ + ^ 2 ^ + ^ 3 ^ + ^ 4 ^ + ^   1 ^ + ^ 2 ^ + ^ 3 ^ + ^ 4 ^ + ^
G|---------------------------------|---------------------------------|
D|---------------------------------|---------------------------------|
A|---------------------------------|---------------------------------|
E|-5-------------------------------|---------2-----------------------|

   1 ^ + ^ 2 ^ + ^ 3 ^ + ^ 4 ^ + ^   1 ^ + ^ 2 ^ + ^ 3 ^ + ^ 4 ^ + ^
G|---------------------------------|---------------------------------|
D|---------------------------------|---------------------------------|
A|-4-------------------------------|---------------------------------|
E|---------------------------------|---------------------------------|


[Pre-Verse]

   1 ^ + ^ 2 ^ + ^ 3 ^ + ^ 4 ^ + ^   1 ^ + ^ 2 ^ + ^ 3 ^ + ^ 4 ^ + ^
G|---------------------------------|---------------------------------|
D|---------------------------------|---------------------------------|
A|---------------------------------|---------------------------------|
E|-2-------------------------------|-------------------------------2-|

   1 ^ + ^ 2 ^ + ^ 3 ^ + ^ 4 ^ + ^   1 ^ + ^ 2 ^ + ^ 3 ^ + ^ 4 ^ + ^
G|---------------------------------|---------------------------------|
D|---------------------------------|---------------------------------|
A|---------------------------------|---------------------------------|
E|-2-------------------------------|---------------------------------|


[Verse]

   1 ^ + ^ 2 ^ + ^ 3 ^ + ^ 4 ^ + ^   1 ^ + ^ 2 ^ + ^ 3 ^ + ^ 4 ^ + ^
G|---------------------------------|---------------------------------|
D|---------------------------------|---------------------------------|
A|-4-------------------------------|---------------------------------|
E|---------------------------------|-0------------/4-----------------| (x4)


[Chorus]

   1 ^ + ^ 2 ^ + ^ 3 ^ + ^ 4 ^ + ^   1 ^ + ^ 2 ^ + ^ 3 ^ + ^ 4 ^ + ^    _
G|---------------------------------|---------------------------------|   |
D|---------------------------------|---------------------------------|   |
A|---------------------------------|---------------------------------|   |
E|-5-------------------------------|---------2-----------------------|   |
                                                                          \_ x3
   1 ^ + ^ 2 ^ + ^ 3 ^ + ^ 4 ^ + ^   1 ^ + ^ 2 ^ + ^ 3 ^ + ^ 4 ^ + ^      /
G|---------------------------------|---------------------------------|   |
D|---------------------------------|---------------------------------|   |
A|-4-------------------------------|---------------------------------|   |
E|---------------------------------|---------0-----------------------|  _|

   1 ^ + ^ 2 ^ + ^ 3 ^ + ^ 4 ^ + ^   1 ^ + ^ 2 ^ + ^ 3 ^ + ^ 4 ^ + ^
G|---------------------------------|---------------------------------|
D|---------------------------------|---------------------------------|
A|---------------------------------|---------------------------------|
E|-5-------------------------------|---------2-----------------------|

   1 ^ + ^ 2 ^ + ^ 3 ^ + ^ 4 ^ + ^   1 ^ + ^ 2 ^ + ^ 3 ^ + ^ 4 ^ + ^
G|---------------------------------|---------------------------------|
D|---------------------------------|---------------------------------|
A|-4-------------------------------|---------------------------------|
E|---------------------------------|---------------------------------|


[Bridge]

   1 ^ + ^ 2 ^ + ^ 3 ^ + ^ 4 ^ + ^   1 ^ + ^ 2 ^ + ^ 3 ^ + ^ 4 ^ + ^
G|---------------------------------|---------------------------------|
D|---------------------------------|---------------------------------|
A|---------------------------------|---------------------------------|
E|---------------------------------|---------------------------------|

   1 ^ + ^ 2 ^ + ^ 3 ^ + ^ 4 ^ + ^   1 ^ + ^ 2 ^ + ^ 3 ^ + ^ 4 ^ + ^
G|---------------------------------|---------------------------------|
D|---------------------------------|---------------------------------|
A|---------------------------------|---------------------------------|
E|---------------------------------|---------------------------------|

   1 ^ + ^ 2 ^ + ^ 3 ^ + ^ 4 ^ + ^   1 ^ + ^ 2 ^ + ^ 3 ^ + ^ 4 ^ + ^
G|---------------------------------|---------------------------------|
D|---------------------------------|---------------------------------|
A|-4-------------5-----------------|-9-------------7-----------------|
E|---------------------------------|---------------------------------|

   1 ^ + ^ 2 ^ + ^ 3 ^ + ^ 4 ^ + ^   1 ^ + ^ 2 ^ + ^ 3 ^ + ^ 4 ^ + ^
G|---------------------------------|---------------------------------|
D|---------------------------------|---------------------------------|
A|-4-------------5-----------------|-9-------------12----------------|
E|---------------------------------|---------------------------------|

   1 ^ + ^ 2 ^ + ^ 3 ^ + ^ 4 ^ + ^   1 ^ + ^ 2 ^ + ^ 3 ^ + ^ 4 ^ + ^
G|---------------------------------|---------------------------------|
D|---------------------------------|---------------------------------|
A|-4-------------5-----------------|-9-------------7-----------------|
E|---------------------------------|---------------------------------|

   1 ^ + ^ 2 ^ + ^ 3 ^ + ^ 4 ^ + ^   1 ^ + ^ 2 ^ + ^ 3 ^ + ^ 4 ^ + ^
G|---------------------------------|---------------------------------|
D|---------------------------------|---------------------------------|
A|-4-------------5-----------------|---------------------------------|
E|---------------------------------|---------------------------------|


[Chorus]

   1 ^ + ^ 2 ^ + ^ 3 ^ + ^ 4 ^ + ^   1 ^ + ^ 2 ^ + ^ 3 ^ + ^ 4 ^ + ^    _
G|---------------------------------|---------------------------------|   |
D|---------------------------------|---------------------------------|   |
A|---------------------------------|---------------------------------|   |
E|-5-------------------------------|---------2-----------------------|   |
                                                                          \_ x3
   1 ^ + ^ 2 ^ + ^ 3 ^ + ^ 4 ^ + ^   1 ^ + ^ 2 ^ + ^ 3 ^ + ^ 4 ^ + ^      /
G|---------------------------------|---------------------------------|   |
D|---------------------------------|---------------------------------|   |
A|-4-------------------------------|---------------------------------|   |
E|---------------------------------|---------0-----------------------|  _|

   1 ^ + ^ 2 ^ + ^ 3 ^ + ^ 4 ^ + ^   1 ^ + ^ 2 ^ + ^ 3 ^ + ^ 4 ^ + ^
G|---------------------------------|---------------------------------|
D|---------------------------------|---------------------------------|
A|---------------------------------|---------------------------------|
E|-5-------------------------------|---------2-----------------------|

   1 ^ + ^ 2 ^ + ^ 3 ^ + ^ 4 ^ + ^   1 ^ + ^ 2 ^ + ^ 3 ^ + ^ 4 ^ + ^
G|---------------------------------|---------------------------------|
D|---------------------------------|---------------------------------|
A|-4-------------------------------|---------------------------------|
E|---------------------------------|---------------------------------|


************************************

| (n) Ghost note
| h   Hammer-on
| /   Slide up

************************************

            
            
Suggest correction
Creating personal tab
Creating personal tab
You can edit any tab online and save it as your Personal.

You can edit, replace or remove any tab part or add personal notes – all changes will be seen only by you.

Personal tabs can be accessed anytime from any device, even offline.
Learn more »
Give kudos to tab author, rate the tab!
1 2 3 4 5
comments
print report bad tab
guest
You may want to rate the tab now too:
select rating
Wanna post a correction for this tab? Suggest correction