Oops, an error
Loading. Please wait.

Love Hurts Acoustic tab

version 4
version 4

Whole song

Interactive

by Incubus
6,137 views 3 this week
no commentswrite comment
1 2 3 4 5
1 last vote to show rating
add to favorites
×
Save as Personal and add changes to this tab that will be seen only by you. Learn more ›
×
You can save this tab as Personal to edit and correct it or add notes. All changes will be seen only by you. Learn more »
launch autoscroll
font size
0
reset
how to read this tab
guitar tuner
edit
Autoscroll
slow
fast
+/-
esc
set tempo
stop
Author
Difficulty
Incubus
Love Hurts
Album: Light Grenades

Intro :
    Em      Bm     D       Am       Em      Bm       A       C
e|---3------2--------------------|---3-------2------x-x--5-3-0--0---|
B|---0------------7--7-8-5--5-7--|---0--------------x-x--5-3-3--3---|
G|--4-4-----------x--x-x-x--x-x--|--4-4-------------x-x--5-5-5--5---|
D|-2-------4-4----7--7-7-5--5-5--|-2--------4-4-----7-7--7-5-5--5---|2x
A|--------2—------5--5-5-3--3-3--|---------2—-------7-7--7-3-3--3---|
E|-------------------------------|------------------5-5--5----------|


Verses :

    Em      Bm         D          Am
e|---3------2--------------------------|
B|---0---------------7-7-8------5-5-7--|
G|--4-4--------------x-x-x------x-x-x--|
D|-2-------4-4-------7-7-7------5-5-5--|4x
A|--------2—---------5-5-5------3-3-3--|
E|-------------------------------------|


Refrain :

      Am           C          Am           C             Dm
e|-000000000---000000000---000000000----0--0--0--00--2--2--2--22--|
B|-111111111---111111111---111111111----1--1--1--11--3--3--3--33--|
G|-222222222---000000000---222222222----0--0--0--00--2--2--2--22--|
D|-222222222---222222222---222222222----2--2--2--22--0--0--0--00--|
A|-000000000---333333333---000000000----3--3--3--33---------------|
E|----------------------------------------------------------------|


Chorus :

    Em      Bm         D          Am       Em      Bm       A       C
e|---3------2--------------------------|---3-------2------5-x-5---3-0-0---|
B|---0---------------7-7-8------5-5-7--|---0--------------5-x-5---3-3-3---|
G|--4-4--------------x-x-x------x-x-x--|--4-4-------------5-x-5---5-5-5---|
D|-2-------4-4-------7-7-7------5-5-5--|-2--------4-4-----7-7-7---5-5-5---|2x
A|--------2—---------5-5-5------3-3-3--|---------2—-------7-7-7---3-3-3---|
E|-------------------------------------|------------------5-5-5-----------|


Outro :
    Em      Bm     D       Am       Em      Bm        A      C
e|---3------2--------------------|---3-------2------x-x--5-3-0--0-----0~--|
B|---0------------7--7-8-5--5-7--|---0--------------x-x--5-3-3--3-----0~--|
G|--4-4-----------x--x-x-x--x-x--|--4-4-------------x-x--5-5-5--5-----9~--|
D|-2-------4-4----7--7-7-5--5-5--|-2--------4-4-----7-7--7-5-5--5-----9~--|2x
A|--------2—------5--5-5-3--3-3--|---------2—-------7-7--7-3-3--3-----7~--|
E|-------------------------------|------------------5-5--5------------0~--|


Verse 1:
----------

Tonight we drink to youth
And holding fast to truth
Don't wanna lose what I had as a boy
My heart still has a beat
But love is now a feat
As common as a cold day in L.A.


Refrain:
----------

Sometimes when I'm alone I wonder
Is there a spell that I am under
Keeping me from seeing the real thing?


Chorus:
----------

Love hurts
But sometimes it's a good hurt
And it feels like I'm alive
Love sings
When it transcends the bad things
Have a heart and try me
‘Cause without love I won't survive


Instrumental: Em


Verse 2:
----------

I’m fettered and abused
Stand naked and accused
Should I surface, this one man submarine?
I only want the truth
So tonight we drink to youth
I’ll never lose what I had as a boy


Refrain:
----------

Sometimes when I'm alone I wonder
Is there a spell that I am under
Keeping me from seeing the real thing


Chorus:
----------

Love hurts
But sometimes it's a good hurt
And it feels like I'm alive
Love sings
When it transcends the bad things
Have a heart and try me
‘Cause without love I won't survive


Bridge/Solo:
---------------

(sorry i’m just interested by the acoustic guitar in this song , you can look out the 
tabs if you want the solo)


Chorus:
----------

Love hurts
But sometimes it's a good hurt
And it feels like I'm alive
Love sings
When it transcends the bad things
Have a heart and try me
‘Cause without love I won't survive


Outro:
----------

Love hurts aaahhhhhhh  ohhhhhh
Love hurts, ‘cause without love I won't survive
Love hurts ooohhhhhhh  lalala ohhhh
Love hurts, ‘cause without love I won't survive

            
            
Suggest correction
Creating personal tab
Creating personal tab
You can edit any tab online and save it as your Personal.

You can edit, replace or remove any tab part or add personal notes – all changes will be seen only by you.

Personal tabs can be accessed anytime from any device, even offline.
Learn more »
Give kudos to tab author, rate the tab!
1 2 3 4 5
comments
print report bad tab
guest
You may want to rate the tab now too:
select rating
Wanna post a correction for this tab? Suggest correction