Oops, an error
Loading. Please wait.

Nebula Bass

version 2
version 2

Whole song

  • Here is the studio version of Incubus' song, Nebul... Show more

Interactive

40 views 3 this week
no commentswrite comment
1 2 3 4 5
3 more votes to show rating
add to favorites
launch autoscroll
font size
0
reset
guitar tuner
×
Best way to learn
"Nebula"
Autoscroll
slow
fast
+/-
esc
set tempo
stop
Author
Difficulty
  follow
intermediate
About this tab version
Here is the studio version of Incubus' song, Nebula. Feel free to mess with the rhythms of this song. I have a bass cover of it, if one want's to see how it's played:https://www.youtube.com/watch?v=hSuPR1YSOxw. Was this info helpful? Yes No
[Intro] x4
G|----------------------|-----------------------|
D|---------------8------|-----------------------|
A|-5--5-5--5--5---------|-5--5-5--5--5----------|
E|-----------------6-6-6|--------------6--6-6--6|
B|----------------------|-----------------------|

[Verse] x3
G|----------------------|
D|----------------------|
A|-----6---------6------|
E|-5-5----5-5--5---5-5-0|
B|----------------------|

G|------------------|
D|------------------|
A|-----6-------6----|
E|-5-5---5-5-5---5--|
B|-----------------4|

[Bridge] x3 
G|---11-9----9---------|--------------------|
D|-9------12---12-11-12|--------------------|
A|---------------------|--------------------|
E|---------------------|--------------------|
B|---------------------|-8-8-8-8-10-10-10-10|
  
[Breakdown] 
G|-------------------|
D|-------------------|
A|-------------------| x2
E|-------------------|
B|-3--3-3-3-3--3--3-3|

G|--------------------|
D|--------------------|
A|--------------------|
E|--------------------|
B|-3-3--3--3-3--3--3-3|

G|-----------------------|
D|-----------------------|
A|-----------------------|
E|---------------------7/|
B|-3--3-3-3-3--3--3-3----|

[Interlude] x4 
G|----------------|-------|
D|---4-2---2------|-------|
A|-2-----5---5-4-5|-------|
E|----------------|-------|
B|----------------|-0---0-|

G|-----------|
D|-----------|
A|-----------|
E|-------3---|
B|-0--3-----1|

[Breakdown 2]
G|-------------------|
D|-------------------|
A|-------------------|  x2
E|-------------------|
B|-3--3-3-3-3--3--3-3|

G|--------------------|
D|--------------------|
A|--------------------|
E|--------------------|
B|-3-3--3--3-3--3--3-3|

G|--------------------------|
D|--------------------------|
A|--------------------------|
E|--------------------7\12/7|
B|-3--3-3-3-3--3--3-3-------|

[Outro]
G|----------------------|
D|----------------------|
A|-----6---------6------| x3
E|-5-5----5-5--5---5-5-0|
B|----------------------|

G|------------------|
D|------------------|
A|-----6-------6----|
E|-5-5---5-5-5---5--|
B|-----------------4|

G|---11-9----9---------|--------------------|
D|-9------12---12-11-12|--------------------|
A|---------------------|--------------------|  x3 
E|---------------------|--------------------|
B|---------------------|-8-8-8-8-10-10-10-10|

G|----|
D|----|
A|----|
E|----|
B|-0--|

************************************

| /  Slide up
| \  Slide down

************************************
Suggest correction
Give kudos to tab author, rate the tab!
1 2 3 4 5
comments
print report bad tab
guest
You may want to rate the tab now too:
select rating
Wanna post a correction for this tab? Suggest correction