Oops, an error
Loading. Please wait.

Pardon Me Tab

version 1
version 1
371,725 views 333 this week
33 commentsread comments
1 2 3 4 5
accurate
x 91
add to favorites
launch autoscroll
font size
0
reset
how to read this tab
guitar tuner
Autoscroll
slow
fast
+/-
esc
set tempo
stop
Help us to improve Ultimate-Guitar.com Take our survey!
×
Author
Name: Michael Casp 
(I borrowed this tab from Andres Titus (zappp) and made corrections. Its about 97% 
correct now)
Tabs: Band: Incubus
Song: Pardon Me (Acoustic)
Tuning: Standard (E A D G B E)
Guitar: 6 String acoustic


[Intro]

E|--------------------------------------------------------0--0-0--|
B|-------0---------------0----------------0---------------0--0-0--|
D|----4----4----------4----4----------4-----4----------4----------|
G|--2---2----2------2---2----2------2---2-----2------2------------|
A|4------------4--0------------4--4-------------4--0--------------|
E|----------------------------------------------------------------|


[Pre-Verse]
 
E|--------------------0---------------------------------------------0-------------------------------|
B|--------------------0---------------------------------------------0-------------------------------|
D|6-6-6-6--6-6---2-2--2--6-6-6-6---6-6--2-2-----6--6-6-6--6-6--2-2--2--6--6-6-6--6-6--9-9-----------|
G|6-6-6-6--6-6---2-2--2--6-6-6-6---6-6--2-2-----6--6-6-6--6-6--2-2--2--6--6-6-6--6-6--9-9--9-9--9-9-|
A|4-4-4-4--4-4---0-0--0--4-4-4-4---4-4--0-0-2---4--4-4-4--4-4--0-0--0--4--4-4-4--4-4--7-7--9-9--7-7-|
E|------------------------------------------0----------------------------------------------7-7--5-5-|


[Verse]

E|--------------------------------------0-0--------------------------------0-----4-4--|
B|------7-7-----7-7---------------------0-0--------------------------------0-----4-4--|
G|------4-4-----4-4-----6-6-----6-6-----8-8-----8-8-----9-9----9-9-------8-------4-4--|
D|---6--6-6-----6-6---------------------6-6-----9-9-----7-7----7-7-----6---------6-6--|
A|-----------7--7-7--6--6-6--6--6-6--4--4-4-----9-9--5--5-5--5-5-5---4-----------6-6--|
E|-------------------------------------------7--7-7---------------------------4--4-4--|

E|------------------------------------0-0--|
B|------9-9-----9-9------7-7--------0-0-0--|
G|------8-8-----8-8---------------4--------|
D|------9-9-----9-9------8-8-----4---------|
A|---7--7-7--7--7-7--6---6-6----2----------|
E|-----------------------------------------|


[Fill 1]

E|--0-0--0-0-0-0--0--0--0-0--|
B|--0-0--0-0-0-0--0--0--0-0--|
G|--2-2--2-2-2-2--2--2--2-2--|
D|--2-2--2-2-2-2--2--2--2-2--|
A|--0-0--0-0-0-0--0--0--0-0--|
E|---------------------------|


[Chorus]

E|----------------0-0--------------------------------------------------------|
B|----------------0-0--------------------------------------------------------|
G|6--6-6-6-4-4--2-2-2---------------------6--6-6-6--4-4-2-2------------------|
D|6--6-6-6-4-4--2-2-2---------------------6--6-6-6--4-4-2-2------------------|
A|4--4-4-4-2-2--0-0-0--4--2--2-2--4--2-2--4--4-4-4--2-2-0-0-4--2--2-2--4--2-2|
E|---------------------2--0--0-0--2--0-0--------------------2--0--0-0--2--0-0|

E|---------------------0--0--0-0--0---------------------------------------|
B|---------------------0--0--0-0--0---------------------------------------|
G|6--6-6-6--2-2--4-4---4--4--4-4--4--6--6-6-6--2-2--4-4-------------------|
D|6--6-6-6--2-2--4-4---4--4--4-4--4--6--6-6-6--2-2--4-4-------------------|
A|4--4-4-4--0-0--2-2---2--2--2-2--4--4--4-4-4--0-0--2-2--4--2--2-2--4--2-2|
E|-------------------------------------------------------2--0--0-0--2--0-0|


[Fill 2]

E|-------------------|
B|-------------------|
G|-------------------|
D|-------------------|
A|--6-6-x-x--2-2--x-x|
E|--4-4-x-x--0-0--x-x|


[Fill 3] 

E|------0-------0-------0-------0----|
B|----0---0---0---0---0---0---0---0--|
G|--6-------6-------6-------6--------|
D|-----------------------------------|
A|-----------------------------------|
E|-----------------------------------|


[Outro]

E|------------------0-------------------------------------------------------------------------------|
B|------------------0-------------------------------------------------------------------------------|
G|6--6-6-6-6-6--2-2-2--6--6-6-6--6-6--2-2-----6--6-6-6--6-6--9-9-------------6--6-6-6--6-6--2-2-----|
D|6--6-6-6-6-6--2-2-2--6--6-6-6--6-6--2-2-----6--6-6-6--6-6--9-9--9-9--9-9---6--6-6-6--6-6--2-2--2--|
A|4--4-4-4-4-4--0-0-0--4--4-4-4--4-4--0-0-2---4--4-4-4--4-4--7-7--9-9--7-7---4--4-4-4--4-4--0-0--2--|
E|----------------------------------------0-----------------------7-7--5-5-----------------------0--|
Suggest correction
comments
print report bad tab
33 comments total. Showing first comments.
+1 reply
FroDaddy 10 wrote on May 8 2002, 12:00 am

That's pretty good, man. Not dissing you or anything, but like you said, it's not all correct. I have the correct version if you would like it.

+4 reply
erRATik04 90 wrote on May 10 2002, 12:00 am

If you have the right version- post it please

0 reply
jimmyhendrixjr 10 wrote on May 11 2002, 12:00 am

frodaddy
can you please post me the correct version please

guest
You may want to rate the tab now too:
select rating
Please do not post tabs as comments. Select "correction" instead!