Oops, an error
Loading. Please wait.

Pardon Me Tab

version 1
version 1
364,891 views 216 this week
33 commentsread comments
1 2 3 4 5
accurate
x 88
add to favorites
launch autoscroll
font size
0
reset
how to read this tab
guitar tuner
Tab Pro tools
  • play this tab
  • loop segment
  • change instrument
  • show fretboard
  • metronome
×
Best way to learn
"Pardon Me"
Autoscroll
slow
fast
+/-
esc
set tempo
stop
Contributor
Name: Michael Casp 
(I borrowed this tab from Andres Titus (zappp) and made corrections. Its about 97% 
correct now)
Tabs: Band: Incubus
Song: Pardon Me (Acoustic)
Tuning: Standard (E A D G B E)
Guitar: 6 String acoustic


Intro 
E|---------------------------------------------------------0-00--|
B|-------0----------------0----------------0---------------0-00--|
D|----4----4-----------4----4----------4-----4----------4--------|
G|--2---2----2-------2---2----2------2---2-----2------2----------|
A|4------------4---0------------4--4-------------4--0------------|
E|---------------------------------------------------------------|

Pre Verse 
E|-------------0--------------------------------0----------------------|
B|-------------0--------------------------------0----------------------|
D|6-666-66--22-2--6-666-66--22-----6-666-66--22-2--6-666-66--99--------|
G|6-666-66--22-2--6-666-66--22-----6-666-66--22-2--6-666-66--99-99-99--|
A|4-444-44--00-0--4-444-44--00-2---4-444-44--00-0--4-444-44--77-99-77--|
E|-----------------------------0--------------------------------77-55--|

Verse 
E|----------------------------------00------------------------------0-----44--|
B|------77-----77-------------------00------------------------------0-----44--|
G|------44-----44-----66-----66-----88-----88------99----99-------8-------44--|
D|---6--66-----66-------------------66-----99------77----77-----6---------66--|
A|----------7--77--6--66--6--66--4--44-----99---5--55--5-55---4-----------66--|
E|--------------------------------------7--77--------------------------4--44--|

E|--------------------------------0-0--|
B|------99----99------77--------0-0-0--|
G|------88----88--------------4--------|
D|------99----99------88----4----------|
A|---7--77--7-77--6---66---2-----------|
E|-------------------------------------|

Fill 1

E|--0-0--0000-0-0-00--|
B|--0-0--0000-0-0-00--|
G|--2-2--2222-2-2-22--|
D|--2-2--2222-2-2-22--|
A|--0 0--0000-0-0-00--|
E|--------------------|

Chorus

E|------------0-0-------------------------------------|
B|------------0-0-------------------------------------|
G|6-666-44--2-2-2--------------6-666-44-22------------|
D|6-666-44--2-2-2--------------6-666-44-22------------|
A|4-444-22--0-0-0--4-2-22-4-22-4-444-22-00-4-2-22-4-22|
E|-----------------2-0-00-2-00-------------2-0-00-2-00|

E|--------------0-0-00-0----------------------------|
B|--------------0-0-00-0----------------------------|
G|6-666-22-44---4-4-44-4--6-666-22-44---------------|
D|6-666-22-44---4-4-44-4--6-666-22-44---------------|
A|4-444-00-22---2-2-22-4--4-444-00-22--4-2-22-4-22--|
E|-------------------------------------2-0-00-2-00--|

Fill 2

E|-------------|
B|-------------|
G|-------------|
D|-------------|
A|--66-xx-22-xx|
E|--44-xx-00-xx|

Fill 3 
E|----0----0----0---0---|
B|---0-0--0-0--0-0-0-0--|
G|--6---6----6----6-----|
D|----------------------|
A|----------------------|
E|----------------------|

Ending 
E|-------------0---------------------------------------------------------|
B|-------------0---------------------------------------------------------|
G|6-666-66--22-2--6-666-66--22-----6-666-66--99----------6-666-66-22-----|
D|6-666-66--22-2--6-666-66--22-----6-666-66--99--99-99---6-666-66-22--2--|
A|4-444-44--00-0--4-444-44--00-2---4-444-44--77--99-77---4-444-44-00--2--|
E|-----------------------------0-----------------77-55----------------0--|
comments
print report bad tab
33 comments total. Showing first comments.
+3 reply
FroDaddy wrote on May 8 2002, 12:00 am

That's pretty good, man. Not dissing you or anything, but like you said, it's not all correct. I have the correct version if you would like it.

+2 reply
erRATik04 wrote on May 10 2002, 12:00 am

If you have the right version- post it please

0 reply
jimmyhendrixjr wrote on May 11 2002, 12:00 am

frodaddy
can you please post me the correct version please

I want to post or [tab]
guest
You may want to rate the tab now too:
select rating
Please do not post tabs as comments. Select "correction" instead!