Oops, an error
Loading. Please wait.

Rogues bass

version 1
version 1

Whole song

Interactive

by Incubus
8,166 views 1 this week
4 commentsread comments
1 2 3 4 5
x 4
add to favorites
×
Save as Personal and add changes to this tab that will be seen only by you. Learn more ›
×
You can save this tab as Personal to edit and correct it or add notes. All changes will be seen only by you. Learn more »
launch autoscroll
font size
0
reset
guitar tuner
edit
Autoscroll
slow
fast
+/-
esc
set tempo
stop
Author
Band-> Incubus
Album-> Light Grenades
Song-> Rogues
Bassist-> Ben Kenney
Tabbed by-> Fried Cheese
standard tuning. 4 string Bass

I hope this is right.
First its mike playing then:
Intro

(Maybe I'm hearing things but I think this part is in the song)
G|---------------------------------------------------------------------------|
D|---------------------------------------------------------------------------|x2
A|---9-7--------9-5----------------------------------------------------------|
E|---------------------------------------------------------------------------|

This is surely part of the song)
G|---------------------------------------------------------------------------|
D|---------------------------------------------------------------------------|
A|---------5---------5--------------5---------5-------------5---------5------|
E|-7-7-5h7---5h7-5h7---55---7-7-5h7---5h7-5h7---55---7-7-5h7---5h7-5h7---55--|

G|---------------------------------------------------------------------------|
D|---------------------------------------------------------------------------|
A|---------5555555555--------------------------------------------------------|
E|-7-7-5h7-------------------------------------------------------------------|
(2 times)

Verse
G|---------------------------------------------------------------------------|
D|---------------------------------------------------------------------------|
A|--------------------7-7-77--------------------------7-7-77--10-10-1010-----|
E|--7-7-77--7-7-77----------3----3h5--7-7-77--7-7-77-------------------------|


G|---------------------------------------------------------------------------|
D|---------------------------------------------------------------------------|
A|---------10-10-1010--9-9-99--7-7-77--6-6-66--5-5-55------------------------|
E|--7-7-77-------------------------------------------------------------------|

Chorus (add the 9's if you want to, but I don't think they are in the song. They sound nice with the chorus)
G|---------------------------------------------------------------------------|
D|---------------------------------------------------------------------------|
A|--10---------------------999---------9999----------------------------------|x3
E|----------7-------10-10--------10-10---------------------------------------|

(final time add this)
G|---------------------------------------------------------------------------|
D|---------------------------------------------------------------------------|
A|----------9999--------99999------------------------------------------------|
E|---10-10--------10-10------------------------------------------------------|


before verse:
G|---------------------------------------------------------------------------|
D|---------------------------------------------------------------------------|
A|---------5---------5--------------5---------5-------------5---------5------|
E|-7-7-5-7---5-7-5-7---55---7-7-5-7---5-7-5-7---55---7-7-5-7---5-7-5-7---55--|

G|---------------------------------------------------------------------------|
D|---------------------------------------------------------------------------|
A|---------5555555555--------------------------------------------------------|
E|-7-7-5-7-------------------------------------------------------------------|


Verse...
Chorus...

Breakdown (I don't really know if that's how Ben plays it in the album. It looks like I
extra notes, but when he plays
live it kinda sounds like this)
G|---------------------------------------------------------------------------|
D|--9-7------97---97----8-6------86---86-------------------------------------|
A|------9------9----9-------8------8----8------------------------------------|
E|--------7-----7----7--------6-----6----6-----------------------------------|

G|---------------------------------------------------------------------------|
D|---------------------8-6------86----86-------------------------------------|
A|--7-7-77-7-77777777------8------8-----8------------------------------------|
E|---------------------------6-----6-----6-----------------------------------|

G|---------------------------------------------------------------------------|
D|--9-9-99-9999999-8-8-88-8888888--------------------------------------------|
A|--------------------------------88888888-8-7-6-5-8-7-5--88888888-8/12------|
E|---------------------------------------------------------------------------|

G|---------------------------------------------------------------------------|
D|---------------------------------------------------------------------------|
A|--1414-12h14-12-12h14-12h14-12---1414-12h14-12-12h14-12h14-12--------------|
E|---------------------------------------------------------------------------|

G|---------------------------------------------------------------------------|
D|---------------------------------------------------------------------------|
A|-1414-12h14-12-12h14-12h14-12---1414-12h14-12-12121212121212\--------------|
E|---------------------------------------------------------------------------|

Chorus....

| /  slide up
| \  slide down
| h  hammer-on
| p  pull-off
| ~  vibrato
| +  harmonic
| x  Mute note
===============================================================================

            
            
Suggest correction
Creating personal tab
Creating personal tab
You can edit any tab online and save it as your Personal.

You can edit, replace or remove any tab part or add personal notes – all changes will be seen only by you.

Personal tabs can be accessed anytime from any device, even offline.
Learn more »
comments
print report bad tab
4 comments total. Showing first comments.
0 reply
Fried Cheese 40 Aug 29, 2007 02:31 PM

There is an update of this! Cause it's missing a part. Hang on!

0 reply
Fried Cheese 40 Aug 29, 2007 07:24 PM

Also hit me up on my profile if you notice some errors.

0 reply
iGamble 30 Jan 26, 2008 02:03 AM

hey man, excellent tab thanks for posting it.
its nt really a correction but the intro on the album version is more
like:

G|-9h11-11----------------9h11-11-----11-11------|
D|----------10--10--10---------------------------|
A|--------------------------------9~-------------|
E|-----------------------------------------------|

G|-9h11-11------16-16-14--12-12-11h12-11---------|
D|----------10-----------------------------------|
A|-----------------------------------------------|
E|-----------------------------------------------|



..well sumit like tha,
also on the album version on the breakdown the notes he uses are
|: B A# G A# :|
but yer
i havent seen the live one, so nt douting anything

thanks again for the great tab

guest
You may want to rate the tab now too:
select rating
Wanna post a correction for this tab? Suggest correction