Oops, an error
Loading. Please wait.

Stellar tab

version 6
version 6

Whole song

by Incubus
260,089 views 78 this week
31 commentsread comments
1 2 3 4 5
x 95
add to favorites
×
Save as Personal and add changes to this tab that will be seen only by you. Learn more ›
×
You can save this tab as Personal to edit and correct it or add notes. All changes will be seen only by you. Learn more »
launch autoscroll
font size
0
reset
how to read this tab
guitar tuner
backing track
0:00
0:00
edit
Autoscroll
slow
fast
+/-
esc
set tempo
stop
Author
Unregistered
Artist: Incubus
Song: Stellar
Tabed by: BlinkSG (Justin Huling)


[Intro/Verses]

e|---------------------------------------------------------------------|
B|---------------------------------------------------------------------|
G|----9/11-11b-6b--------------------9/11-11b-6b-----------------------|
D|--9-9/11-11b-6b-6-----6-6---6-7--9-9/11-11b-6b-6-----6-6------6------|
A|-0---------------4-4-----5------0---------------4-4------7-7---------|
E|---------------------------------------------------------------------|


[Chorus]

      (we could start a....)    How do you do it.........

e|-----------------------------------------------------------------------------------------|
B|---------------------------------------------------------0--0-x-0--0---------------------|
G|---7-7--7-7-7-7-7-7-7--4--------------4-4-4-4-4-4--------22---x-22-----------------------|
D|---7-7--7-7-7-7-7-7-7--4--------------4-4-4-4-4-4--------22---x-22-----------------------|
A|---5-5--5-5-5-5-5-5-5--2-2-2-2-2-2-2---------------------0--0-x-0--0--------6--6----6--7-|     
E|---5-5--5-5-5-5-5-5-5--2-2-2-2-2-2-2---------------------0--0-x-0--0---4--4-------5------|
                                                                    
  Does this part ^ twice first and | twice 2nd for first chorus                                             
                                
e|-----------------------------------------------------|
B|-0-0-x-0-0-------------------------------------------|
G|-2-2-x-2-2-------------------------------------------|
D|-2-2-x-2-2--------6-6----6-7-------------------------|
A|-0-0-x-0-0-----6-6-4-4--7-4-5------------------------|
E|-0-0-x-0-0-----4-4-----5-----------------------------|


[Bridge]

e|--------------------------------------|
B|--------------------------------------|
G|--------------------------------------|
D|------9/11---------9\6----------------|
A|---9--9-11------9--9\6----------------|
E|--0------------0----------------------|


[Interlude]

(I tabbed only 50% of this)

e|-------------------------------------------------------0-|
B|-------------------------------------------------------0-|
G|-------------------------------------------------------4-|
D|---0--0------0--0-------0-0----2-2------2-2-----7------7-|
A|--7----7----7----7-----5--5---2---2----2---2---5-5-------|
E|-5------5--5------5/3-3---3--0-----0--0-----0-3----------|

************************************

| x  Dead note
| b  Bend
| /  Slide up
| \  Slide down

************************************

            
            
Suggest correction
Creating personal tab
Creating personal tab
You can edit any tab online and save it as your Personal.

You can edit, replace or remove any tab part or add personal notes – all changes will be seen only by you.

Personal tabs can be accessed anytime from any device, even offline.
Learn more »
comments
print report bad tab
31 comments total. Showing first comments.
0 reply
incubusbassplay 10 Dec 09, 2005 03:20 PM

most excellent;standing ovation

+1 reply
dostacysmom69 31 Aug 22, 2006 07:15 PM

i saw it live on letterman, its 95% correct

0 reply
kurdtdcobain_6 10 Sep 01, 2006 06:29 PM

****ing excellant. perfect i think. maby those two guy with there girlfriends are just playing it wrong cos im playing it and it sounds perfect to me

guest
Wanna post a correction for this tab? Suggest correction