Oops, an error
Loading. Please wait.

Summer Romance Anti Gravity Love Song tab

version 7
version 7
by Incubus
16,544 views 6 this week
no commentswrite comment
1 2 3 4 5
x 6
add to favorites
×
Save as Personal and add changes to this tab that will be seen only by you. Learn more ›
×
You can save this tab as Personal to edit and correct it or add notes. All changes will be seen only by you. Learn more »
launch autoscroll
font size
0
reset
how to read this tab
guitar tuner
edit
Autoscroll
slow
fast
+/-
esc
set tempo
stop
Author
Difficulty
intermediate
(Gtr1) (E A D G B E) - 'Dist'
(Gtr2) (E A D G B E) - 'Jazz'
(Gtr 3) (E A D G B E) - 'Clean'
(Gtr 4) (E A D G B E) - 'Alto Sax'

[Intro]
Moderately Slow Funk Q=110
                (Bm7)
 3/8           4/4
(Gtr1)
  S S E S S     S S S S S S S S S S S S S S S S
e|-----------|----------------------------------|
B|-----------|o---------------------------------|
G|-----------|----------------------------------|
D|-----------|----------------------------------|
A|-x-x-x-x-x-|o-2h5-x-2-x-x-0h2-x-x---------x-x-|
E|-----------|----------------------2-x-2h5-----|

   S S S S S S S S S S S S S S S S   (3x)
e|-----------------------------------|
B|----------------------------------o|
G|-----------------------------------|
D|-----------------------------------|
A|-2h5-x-2-x-x-0h2-x-x---------x-x--o|
E|---------------------3-x-3h5-------|

   S S S S S S S S S S S S S S S S   S S S S S S S S S S S S S S S S
e|---------------------------------|----------------------------------|
B|---------------------------------|----------------------------------|
G|---------------------------------|----------------------------------|
D|---------------------------------|----------------------------------|
A|-2h5-x-2-x-x-0h2-x-x---------x-x-|-2h5-x-x-0h2-x-x------------------|
E|---------------------2-x-2h5-----|-----------------3h5-x-x-0h2-x-x--|

     S S S S S S S S S S S S S S S S   S S S S S S S S S S S S S S S S
e|----------------------------------|---------------------------------|
B|o---------------------------------|---------------------------------|
G|----------------------------------|---------------------------------|
D|----------------------------------|---------------------------------|
A|o-2h5-x-2-x-x-0h2-x-x---------x-x-|-2h5-x-2-x-x-0h2-x-x---------x-x-|
E|----------------------2-x-2h5-----|---------------------3-x-3h5-----|

   S S S S S S S S S S S S S S S S   S S S S S S S S +S  S S S S S S S
e|---------------------------------|-------------------------------------|
B|---------------------------------|------------------------------------o|
G|---------------------------------|-------------------------------------|
D|---------------------------------|-------------------------------------|
A|-2h5-x-2-x-x-0h2-x-x---------x-x-|-2h5-x-2-x--------------------------o|
E|---------------------2-x-2h5-----|-----------x-5s7-(7)-7-7-7-7-7-7-7---|

   S  S S S S S S S S S S S a Q    S S E Q  H
e|-7-10-7------------------------|---------------|
B|--------9----------------------|---------------|
G|----------7-9-----7---9---7s9--|-7-7-----------|
D|--------------7s6---6---6------|---------------|
A|-------------------------------|---------------|
E|-------------------------------|---------------|

[Verse]
$
Bm7
(Gtr2)
    W          +Q    e  e   e  E  S  e  s
e|-^7--------|-(7)--10-12-/14-12-10s12-10-|
B|-^7--------|-(7)------------------------|
G|-^7--------|-(7)---7--9-/11--9--7s=9--7-|
D|-^7--------|-(7)------------------------|
A|-^9--------|-(9)------------------------|
E|-^7--------|-(7)------------------------|

                                 |--3--|
   +s   S  +H..          +h      S  S  S  e Q
e|-(10)----------------|-------------------------|
B|------12-(12)--------|-(12)----12-12-12-12-----|
G|--(7)----------------|-------------------------|
D|-------9--(9)--------|--(9)-----9--9--9--9-----|
A|---------------------|-------------------------|
E|---------------------|-------------------------|

    W          +Q    e  e   e  E  S  e  s
e|-^7--------|-(7)--10-12-/14-12-10s12-10-|
B|-^7--------|-(7)------------------------|
G|-^7--------|-(7)---7--9-/11--9--7s=9--7-|
D|-^7--------|-(7)------------------------|
A|-^9--------|-(9)------------------------|
E|-^7--------|-(7)------------------------|

    +s   S  +H..          +H     S E S S E S
e|-(10)----------------|----------------------|
B|------12-(12)--------|-(12)----7-7-x-x-7-x--|
G|--(7)----------------|---------7-7-x-x-7-x--|
D|-------9--(9)--------|--(9)-----------------|
A|---------------------|----------------------|
E|---------------------|----------------------|

    W          +Q    e  e   e  E  S  e  s
e|-^7--------|-(7)--10-12-/14-12-10s12-10-|
B|-^7--------|-(7)------------------------|
G|-^7--------|-(7)---7--9-/11--9--7s=9--7-|
D|-^7--------|-(7)------------------------|
A|-^9--------|-(9)------------------------|
E|-^7--------|-(7)------------------------|

                                 |--3--|
   +s   S  +H..          +h      S  S  S  e Q
e|-(10)----------------|-------------------------|
B|------12-(12)--------|-(12)----12-12-12-12-----|
G|--(7)----------------|-------------------------|
D|-------9--(9)--------|--(9)-----9--9--9--9-----|
A|---------------------|-------------------------|
E|---------------------|-------------------------|

    W          +Q    e  e   e  E  S  e  s
e|-^7--------|-(7)--10-12-/14-12-10s12-10-|
B|-^7--------|-(7)------------------------|
G|-^7--------|-(7)---7--9-/11--9--7s=9--7-|
D|-^7--------|-(7)------------------------|
A|-^9--------|-(9)------------------------|
E|-^7--------|-(7)------------------------|

    +s   S  +Q    S  S S  S  S S  S  S S  S    S S  S  S S  S  S S  S  S  S  S Q
e|-(10)----------24-------------------------|--------------------------------------|
B|------12-(12)----------24-----------------|--------------------------------------|
G|--(7)-------------19-----------23---------|--------------------------------------|
D|-------9--(9)-------------19-----------24-|------21------19------16--------------|
A|----------------------------------19------|--------------------------------------|
E|------------------------------------------|-22------19------17------14-12s14s7---|

[Pre-Chorus]
     Em7                          Dmaj7
(Gtr 3)
     E. S S S E +S  S S S E S S   E. S S S E +S  S S S E S S
e|--7--7-7-7-7-(7)-7-7-7-7-7-7-|-5--5-5-5-5-(5)-5-5-5-5-5-5-|
B|o-8--8-8-8-8-(8)-8-8-8-8-8-8-|-7--7-7-7-7-(7)-7-7-7-7-7-7-|
G|--7--7-7-7-7-(7)-7-7-7-7-7-7-|-6--6-6-6-6-(6)-6-6-6-6-6-6-|
D|--9--9-9-9-9-(9)-9-9-9-9-9-9-|-7--7-7-7-7-(7)-7-7-7-7-7-7-|
A|o-7--7-7-7-7-(7)-7-7-7-7-7-7-|-5--5-5-5-5-(5)-5-5-5-5-5-5-|
E|-----------------------------|----------------------------|

                                1.
   F#7/Bb                       Bm7           Gmaj7
   E. S S S E +S  S S S E S S   S S S S E S S  S  S  S  S  E  S  S
e|-6--6-6-6-6-(6)-6-6-6-6-6-6-|-7-7-7-7-7-7-7-10-10-10-10-10-10-10--|
B|-7--7-7-7-7-(7)-7-7-7-7-7-7-|-7-7-7-7-7-7-7-12-12-12-12-12-12-12-o|
G|-9--9-9-9-9-(9)-9-9-9-9-9-9-|-7-7-7-7-7-7-7-11-11-11-11-11-11-11--|
D|-8--8-8-8-8-(8)-8-8-8-8-8-8-|-7-7-7-7-7-7-7-12-12-12-12-12-12-12--|
A|----------------------------|-9-9-9-9-9-9-9-10-10-10-10-10-10-10-o|
E|----------------------------|-7-7-7-7-7-7-7-----------------------|

   2.
   Bm7
   E E S  S  S  S  S  S  S  S  S  S  E
e|-------10-10-10-10-10-10-10-10-10-10---|
B|--------7--7--7--7--7--7--7--7--7--7---|
G|-7-7-7--7--7--7--7--7--7--7--7--7--7---|
D|-7-7-7--7--7--7--7--7--7--7--7--7--7---|
A|-9-9-9---------------------------------|
E|-7-7-7---------------------------------|

[Chorus]
(Bm7)
(Gtr1)
     S S S S S S S S S S S S S S S S   S S S S S S S S S S S S S S S S
e|----------------------------------|---------------------------------|
B|o---------------------------------|---------------------------------|
G|----------------------------------|---------------------------------|
D|----------------------------------|---------------------------------|
A|o-2h5-x-2-x-x-0h2-x-x---------x-x-|-2h5-x-2-x-x-0h2-x-x---------x-x-|
E|----------------------2-x-2h5-----|---------------------3-x-3h5-----|


   S S S S S S S S S S S S S S S S   S S S S S S S S +S  S S S S S S S
e|---------------------------------|-------------------------------------|
B|---------------------------------|------------------------------------o|
G|---------------------------------|-------------------------------------|
D|---------------------------------|-------------------------------------|
A|-2h5-x-2-x-x-0h2-x-x---------x-x-|-2h5-x-2-x--------------------------o|
E|---------------------2-x-2h5-----|-----------x-5s7-(7)-7-7-7-7-7-7-7---|

                                          To Coda          D.S. al Coda
   G5                           F#5E5      D5/AC#5/AB5
   E. S S S E +S  S S S E S S   E. S +E  E  Q  Q    S e s +s  S e q  Q
e|----------------------------|-------------------|---------------------|
B|----------------------------|-------------------|---------------------|
G|----------------------------|-------------------|-4-4-4-(4)-4-4-4-----|
D|----------------------------|------------/7--6--|-4-4-4-(4)-4-4-4-----|
A|-5--5-x-x-5-(5)-5-x-x-5-x-x-|-4--2-(2)-4-/5--4--|-2-2-2-(2)-2-2-2-----|
E|-3--3-x-x-3-(3)-3-x-x-3-x-x-|-2--0-(0)-2-/5--4--|---------------------|

[Interlude]
   &
   B5
   S e s +s  S e q  Q    S e s +s  S e q  Q
e|---------------------|---------------------|
B|---------------------|---------------------|
G|-4-4-4-(4)-4-4-4-----|-4-4-4-(4)-4-4-4-----|
D|-4-4-4-(4)-4-4-4-----|-4-4-4-(4)-4-4-4-----|
A|-2-2-2-(2)-2-2-2-----|-2-2-2-(2)-2-2-2-----|
E|---------------------|---------------------|

   W                     W
e|---------------------|---------------------|
B|---------------------|---------------------|
G|---------------------|---------------------|
D|---------------------|---------------------|
A|---------------------|---------------------|
E|---------------------|---------------------|

   S e s +s  S e q  Q    S e   s +s  S e   q       +Q
e|---------------------|---------------------------------------|
B|---------------------|---------------------------------------|
G|-4-4-4-(4)-4-4-4-----|-4-4---4-(4)-4-4---4-------(4)---------|
D|-4-4-4-(4)-4-4-4-----|-4-4---4-(4)-4-4---4-------(4)---------|
A|-2-2-2-(2)-2-2-2-----|-2-2---2-(2)-2-2---2-------(2)---------|
E|---------------------|---------------------------------------|

(Gtr 4)
   W                     S S S S  S  S S S S S S S  S  S  S  S
e|---------------------|------------------------------------10-|
B|---------------------|---------------------------10----10----|
G|---------------------|---------------7---7h9-7h9-----9-------|
D|---------------------|-------7-----7---7---------------------|
A|---------------------|---5s7----7----------------------------|
E|---------------------|---------------------------------------|

[Sax Solo]
Bm7/F#
(Gtr 2)
    H.                    Q              H.                  Q
e|------------------------------------|--------------------------------|
B|-10---------------------------------|-10-----------------------------|
G|--7---------------------------------|--7-----------------------------|
D|--9---------------------------------|--9-----------------------------|
A|--9---------------------------------|--9-----------------------------|
E|------------------------------------|--------------------------------|

                             |--3--|
   Q   +E   S  S S  S E +E   S  S  S    Q   +E  S S  S S E +S  S S  S
e|--9---(9)-------9h10p9-(9)----------|-----------------7--------------|
B|----------10h12------------12p11p10s|==9---(9)-7-9s10---9-(9)-8------|
G|------------------------------------|---------------------------9h10-|
D|------------------------------------|--------------------------------|
A|------------------------------------|--------------------------------|
E|------------------------------------|--------------------------------|

    H.                              Q             H.         Q
e|---------------------------------------------|----------------------|
B|-10------------------------------------------|-10-------------------|
G|--7------------------------------------------|--7-------------------|
D|--9------------------------------------------|--9-------------------|
A|--9------------------------------------------|--9-------------------|
E|---------------------------------------------|----------------------|

                    |---3----|
   S  S S S S S S S S    +S  S S S S S a  S S    e  E Q  Q  S S S  S
e|---------------------------------------------|----------------------|
B|--7----------------9b10r(9)p7-------7--------|-------------------10-|
G|-----7-----9p6----------------9p8p7----------|--9----------9p7------|
D|-------9-------7----------------------9s11-9-|----------------------|
A|---------------------------------------------|----------------------|
E|---------------------------------------------|----------------------|

    H.                      Q     H.                               Q
e|-----------------------------|------------------------------------------|
B|-10--------------------------|-10---------------------------------------|
G|--7--------------------------|--7---------------------------------------|
D|--9--------------------------|--9---------------------------------------|
A|--9--------------------------|--9---------------------------------------|
E|-----------------------------|------------------------------------------|

    Q   +S  T T S S S S S S Q     E  S S  S S S T T    +S  S S T T S S E
e|-----------------------------|------------------------------------------|
B|----------7------------------|---------10-------------------------------|
G|--9---(9)---9p7---9---9p7----|-----9------9-----9b10r(9)p7-------9p7----|
D|-----------------------------|-----------------------------9p7----------|
A|-----------------------------|------------------------------------------|
E|-----------------------------|------------------------------------------|

    H.                    Q          H.                       Q
e|--------------------------------|-----------------------------------|
B|-10-----------------------------|-10--------------------------------|
G|--7-----------------------------|--7--------------------------------|
D|--9-----------------------------|--9--------------------------------|
A|--9-----------------------------|--9--------------------------------|
E|--------------------------------|-----------------------------------|

    Q   a S S S S a E S S S S S S    S  S S S a E S S S S S S S S S S
e|--------------------------------|-----------------------------------|
B|--------------------------------|-----------------------------------|
G|--------------------------------|-----------------------------6h7h8-|
D|------7s9-7---9-5s6-9---7-7h9---|--6--6h9---6s7-9-------6h7h9-------|
A|--------------------------------|-----------------9---9-------------|
E|--------------------------------|-----------------------------------|

   Em7
(Gtr 3)
   E.     S S S E    +S  S S S  E      S   S
e|-7------7-7-7-7----(7)-7-7-7--7------7---7----|
B|-8------8-8-8-8----(8)-8-8-8--8------8---8----|
G|-7------7-7-7-7----(7)-7-7-7--7------7---7----|
D|-9------9-9-9-9----(9)-9-9-9--9------9---9----|
A|-7------7-7-7-7----(7)-7-7-7--7------7---7----|
E|----------------------------------------------|

                                     |--3---|
  S  S S S S S S S   S  S S S +T  T S S S    S
e|----------------------------------------------|
B|---------------------------7-(7)---7----------|
G|-9--8p7---6--------------7-------9---7--------|
D|------------9p7-6------9---------------9------|
A|------------------/10----------------------10-|
E|----------------------------------------------|

   Dmaj7
   E.     S S S E   +S  S S S E   S    S
e|-5------5-5-5-5---(5)-5-5-5-5---5----5--|
B|-7------7-7-7-7---(7)-7-7-7-7---7----7--|
G|-6------6-6-6-6---(6)-6-6-6-6---6----6--|
D|-7------7-7-7-7---(7)-7-7-7-7---7----7--|
A|-5------5-5-5-5---(5)-5-5-5-5---5----5--|
E|----------------------------------------|

                             |--3---|
  S S S  S E   S S +E    E   E E    E
e|----------------------------------/9----|
B|-------10-------------------------------|
G|-9p7------9---7---------------6---------|
D|----------------7-(7)-------------------|
A|----------------------------------------|
E|----------------------------------------|

   F#7/Bb                             Bm7           Gmaj7
    E. S   S S E   +S S S S E   S S   S S S S E S S  S  S  S  S  E  S  S
e|--6--6---6-6-6---(6)6-6-6-6---6-6-|-7-7-7-7-7-7-7-10-10-10-10-10-10-10-|
B|--7--7---7-7-7---(7)7-7-7-7---7-7-|-7-7-7-7-7-7-7-12-12-12-12-12-12-12-|
G|--9--9---9-9-9---(9)9-9-9-9---9-9-|-7-7-7-7-7-7-7-11-11-11-11-11-11-11-|
D|--8--8---8-8-8---(8)8-8-8-8---8-8-|-7-7-7-7-7-7-7-12-12-12-12-12-12-12-|
A|----------------------------------|-9-9-9-9-9-9-9-10-10-10-10-10-10-10-|
E|----------------------------------|-7-7-7-7-7-7-7----------------------|

   Q      S S S S  S S S S S S S S   S S E   Q      S  S  S  S  E  S  S
e|----------------------------------|------------------------------------|
B|-10----/10p7---7------------------|------------------------------------|
G|-------------7---10p7---7s6-------|-------------------------9p=6-------|
D|----------------------8-----8-----|-7h9------------7h=9-----------7----|
A|------------------------------9---|----------------------------------9-|
E|----------------------------------|------------------------------------|

   Em7                             Dmaj7
(Gtr 3)
    E. S S S E +S  S S S E   S S    E.     S  S S E    +S  S S S  E   S S
e|--7--7-7-7-7-(7)-7-7-7-7---7-7-|--5------5--5-5-5----(5)-5-5-5--5---5-5-|
B|--8--8-8-8-8-(8)-8-8-8-8---8-8-|--7------7--7-7-7----(7)-7-7-7--7---7-7-|
G|--7--7-7-7-7-(7)-7-7-7-7---7-7-|--6------6--6-6-6----(6)-6-6-6--6---6-6-|
D|--9--9-9-9-9-(9)-9-9-9-9---9-9-|--7------7--7-7-7----(7)-7-7-7--7---7-7-|
A|--7--7-7-7-7-(7)-7-7-7-7---7-7-|--5------5--5-5-5----(5)-5-5-5--5---5-5-|
E|-------------------------------|----------------------------------------|

   +Q    Q      S  S S S S S S S    S  S S S  S S S  S  E    S S +E   E
e|-------------------------------|-----7---7------------------------------|
B|---------------------------7---|-10----7---10p7---10p=7-----------------|
G|-----------------------7h9-----|----------------9----------9p7-(7)\-----|
D|-------------------7h9---------|----------------------------------------|
A|-(9)-------------9-------------|----------------------------------------|
E|-------------------------------|----------------------------------------|

   F#7/Bb                                          Bm7
   E.    S S    S   E     +S  S S S  E  S    S     S e s +s   S e    q     Q
e|-6-----6-6----6---6-----(6)-6-6-6--6--6----6---|-7-7-7-(7)--7-7----7--------|
B|-7-----7-7----7---7-----(7)-7-7-7--7--7----7---|-7-7-7-(7)--7-7----7--------|
G|-9-----9-9----9---9-----(9)-9-9-9--9--9----9---|-7-7-7-(7)--7-7----7--------|
D|-8-----8-8----8---8-----(8)-8-8-8--8--8----8---|-7-7-7-(7)--7-7----7--------|
A|-----------------------------------------------|-9-9-9-(9)--9-9----9--------|
E|-----------------------------------------------|-7-7-7-(7)--7-7----7--------|

                                                  ~
   E  S  S T T  T T T T S +Q        +E  T T  T.X   Q      S   S S S  E  Q.
e|--------------------8h9-(9)-------(9)----------|----------------------------|
B|------------------7-------------------7--------|----------------------------|
G|----------------7-----------------------7------|-9------7-------7-/9--------|
D|-----------8h11---------------------------11p9-|-----------11--------11-----|
A|---------7-------------------------------------|----------------------------|
E|----9s10---------------------------------------|----------------------------|

[Out-Chorus]
(Bm7)
(Gtr1)
   S S S S S S S S S S S S S S S S   S S S S S S S S S S S S S S S S
e|---------------------------------|----------------------------------|
B|---------------------------------|----------------------------------|
G|---------------------------------|----------------------------------|
D|---------------------------------|----------------------------------|
A|-2h5-x-2-x-x-0h2-x-x---------x-x-|-2h5-x-2-x-x-0h2-x-x---------x-x--|
E|---------------------2-x-2h5-----|---------------------3-x-3h5------|

   E   S S S S E   S S S S E   S S   S S E   S S S S E   S S S S E
e|---------------------------------|----------------------------------|
B|---------------------------------|----------------------------------|
G|-----7---7-6-----7---7-6-----7---|-7-9-----7---7-6-----7---7-6------|
D|---------------------------------|----------------------------------|
A|---------------------------------|----------------------------------|
E|---------------------------------|----------------------------------|

   S S S S S S S S  S  S S S S S S S    S S S S S S S S +S  S S S S S S S
e|-----------------------------------|-------------------------------------|
B|-----------------------------------|-------------------------------------|
G|-----------------------------------|-------------------------------------|
D|-----------------------------------|-------------------------------------|
A|-2h5-x-2-x-x-0h2--x--x---------x-x-|--2h5-x-2-x--------------------------|
E|-----------------------2-x-2h5-----|------------x-5s7-(7)-7-7-7-7-7-7-7--|

   S S S S S S S S +E    E   S S S S    E   S S S S E   +E    E   Q
e|-----------------------------------|-------------------------------------|
B|-----------------------------------|-------------------------------------|
G|-7---7---6-7-6-------------7-6---7-|-/6---7-9---9-6---(6)----------------|
D|-----------------------------------|-------------------------------------|
A|---------------9-(9)---------------|-------------------------------------|
E|-----------------------------------|-------------------------------------|

   S S S S S S S S S S S S S S S S   S S S S S S S S S S S S S S S S
e|---------------------------------|----------------------------------|
B|---------------------------------|----------------------------------|
G|---------------------------------|----------------------------------|
D|---------------------------------|----------------------------------|
A|-2h5-x-2-x-x-0h2-x-x---------x-x-|-2h5-x-2-x-x-0h2-x-x---------x-x--|
E|---------------------2-x-2h5-----|---------------------3-x-3h5------|
 
   E   S S S S E   S S S S E   S S   S S E   S S S S E   S S S S S S
e|---------------------------------|----------------------------------|
B|---------------------------------|----------------------------------|
G|-----7---6-9-----7---7-6-----7---|-7-9-----7---7-6-----7---7-6---7--|
D|---------------------------------|----------------------------------|
A|---------------------------------|----------------------------------|
E|---------------------------------|----------------------------------|

    S S S S S S S S S S S S  S S S S   S S S S S S S S +S  S S S S S S S
e|-----------------------------------|------------------------------------|
B|-----------------------------------|------------------------------------|
G|-----------------------------------|------------------------------------|
D|-----------------------------------|------------------------------------|
A|--2h5-x-2-x-x-0h2-x-x----------x-x-|-2h5-x-2-x--------------------------|
E|----------------------2-x--2h5-----|-----------x-5s7-(7)-7-7-7-7-7-7-7--|

    E   S S S S S S S S S S  E   S S   S S E   Q        H
e|-----------------------------------|------------------------------------|
B|-----------------------------------|------------------------------------|
G|-/6---7---6-6-7---6-6-7---/6---7-6-|---6--------------------------------|
D|-----------------------------------|-----7------------------------------|
A|-----------------------------------|---------9--------------------------|
E|-----------------------------------|------------------------------------|

   H.=H
   G5                        F#5E5    F#D5/AC#5/ABm9
   E. S S S E +Q   +E  S S   E. S +E  E  Q  Q     W
e|-------------------------|-------------------|-^9--------------------------|
B|-------------------------|-------------------|-^7--------------------------|
G|-------------------------|-------------------|-^7--------------------------|
D|-------------------------|------------/7--6--|-^7--------------------------|
A|-5--5-x-x-5-(5)--(5)-x-x-|-4--2-(2)-4-/5--4--|-^9--------------------------|
E|-3--3-x-x-3-(3)--(3)-x-x-|-2--0-(0)-2-/5--4--|-^7--------------------------|
 
   W                         W                    E E  E  E  +Q     S S S S
e|-------------------------|-------------------|------/9---------------------|
B|-------------------------|-------------------|---------10-(10)--/10-7------|
G|-------------------------|-------------------|----6-------------------9-7--|
D|-------------------------|-------------------|-----------------------------|
A|-------------------------|-------------------|-----------------------------|
E|-------------------------|-------------------|-----------------------------|

                                                          ~~~
   +W                                  +W                +W
e|-(9)-------------------------------|-----------------|--------*|
B|-(7)-------------------------------|-(7)-------------|-(7)----*|
G|-(7)-------------------------------|-(7)-------------|-(7)----*|
D|-(7)-------------------------------|-(7)-------------|--------*|
A|-(9)-------------------------------|-(9)-------------|--------*|
E|-(7)-------------------------------|-----------------|--------*|

    S  S S S S S S S S S S S S S S S   +Q   Q  Q  S E.    W
e|-----------------------------------|-----------------|--------*|
B|-----------------------------------|-----------------|--------*|
G|-----6-7---6-7---6-7---6-7---6-7-6-|-(6)-------------|--------*|
D|-----------------------------------|------------7----|--------*|
A|-----------------------------------|--------------9--|--------*|
E|-----------------------------------|-----------------|--------*|


************************************

| x    Dead note
| h    Hammer-on
| (n)  Ghost note
| /    Slide up
| s    Slap
| p    Pull-off
| b    Bend
| ~    Vibrato
| *    Natural harmonic

************************************

            
            
Suggest correction
Creating personal tab
Creating personal tab
You can edit any tab online and save it as your Personal.

You can edit, replace or remove any tab part or add personal notes – all changes will be seen only by you.

Personal tabs can be accessed anytime from any device, even offline.
Learn more »
comments
print report bad tab
guest
You may want to rate the tab now too:
select rating
Wanna post a correction for this tab? Suggest correction