Oops, an error
Loading. Please wait.

Surface To Air Tab

version 2
version 2

Whole song

411 views 1 this week
no commentswrite comment
1 2 3 4 5
please rate
add to favorites
launch autoscroll
font size
0
reset
how to read this tab
guitar tuner
Tab Pro tools
  • play this tab
  • loop segment
  • change instrument
  • show fretboard
  • metronome
×
Best way to learn
"Surface To Air"
Autoscroll
slow
fast
+/-
esc
set tempo
stop
Contributor
Difficulty
intermediate
-------------------------------------------------------------------------------
                             Surface to Air - Incubus
-------------------------------------------------------------------------------
Tabbed by: http://profile.ultimate-guitar.com/throwshapes/
Tuning: EADGBe


Intro
e|-------------------------------------------------------|
B|------------0-----------0------------------------------|
G|----------0---0-------0---0----------------------------|
D|-------------------------------------------------------|
A|------------------------------10----12----14-----------|
E|-3-----7----------10-----------------------------------|

e|-------------------------------------------------------|
B|------------0-----------0------------------------------|
G|----------0---0-------0---0----------------------------|
D|-------------------------------------------------------|
A|------------------------------10----12----10-----------|
E|-3-----7----------10-----------------------------------|

e|-------------------------------------------------------|
B|------------0-----------0------------------------------|
G|----------0---0-------0---0----------------------------|
D|-------------------------------------------------------|
A|------------------------------10----12----14-----------|
E|-3-----7----------10-----------------------------------|

e|-------------------------------------------0-0-0-0-----|
B|------------0-----------0------------------0-0-0-0-0---|
G|----------0---0-------0---0----------------9-9-9-7-7---|
D|-------------------------------------------9-9-9-9-9---|
A|------------------------------10----12-------------10--|
E|-3-----7----------10-----------------------------------|

Chorus
e|-------------------------------------------------------|
B|--0-0-0-0----------0-0-0-0----------0-0-0-0------------|
G|--7-7-7-7---7--7---7-7-7-7---7--7---7-7-7-7---9p7-9p7--|
D|--9-9-9-9---9--9---9-9-9-9---9--9---9-9-9-9---9---9----| 
A|--10101010-10-10--10101010--10-10--10101010------------|
E|-------------------------------------------------------|

e|-------------------------------------------------------------------------|
B|--0-0-0-0----------0-0-0-0----------0-0-0-0----------0-0-0-0-------------|
G|--7-7-7-7---7--7---7-7-7-7---7--7---7-7-7-7---7--7---7-7-7-7---9p7-9p7---|
D|--9-9-9-9---9--9---9-9-9-9---9--9---9-9-9-9---9--9---9-9-9-9---9---9-----| x2
A|--10101010-10-10---10101010-10-10--10101010--10-10--10101010-------------|
E|-------------------------------------------------------------------------|

e|----------------------------------------------------------------12-------|
B|--0-0-0-0----------0-0-0-0----------0-0-0-0---------------------12-------|
G|--7-7-7-7---7--7---7-7-7-7---7--7---7-7-7-7---7h9-999999-----------------|
D|--9-9-9-9---9--9---9-9-9-9---9--9---9-9-9-9---9---999999-----------------|
A|--10101010-10-10---10101010-10-10--10101010--10--------------------------|
E|-------------------------------------------------------------------------|


Verse
e|---------------------------------------------------------------------------|
B|---------------------------------------------------------------------------|
G|---------------------------------------------------------------------------|
D|---------------------------------------------------------------------------|
A|---------------------------------------------------------------------------|
E|--0---0---0--xx--3---3---3--xx---7---0-7-10-7-0-7-10-7-0-7-10-7------------|
1. Do you read me, mayday
2. Is there anyone out there


e|---------------------------------------------------------------------------|
B|---------------------------------------------------------------------------|
G|---------------------------------------------------------------------------|
D|---------------------------------------------------------------------------|
A|---------------------------------------------------------------------------|
E|--0---0---0--xx--3---3---3--xx----7------7------3------3-------------------|
1. Aeronaut to base
2. Why the third degree?

e|---------------------------------------------------------------------------|
B|---------------------------------------------------------------------------|
G|---------------------------------------------------------------------------|
D|---------------------------------------------------------------------------|
A|---------------------------------------------------------------------------|
E|--0---0---0--xx--3---3---3--xx---7---0-7-10-7-0-7-10-7-0-7-10-7------------|
1. I confess I'm a mess, No egress
2. Never knew Until you
                                                
e|--------------------------------------------------------------------|---0--|
B|--------------------------------------------------------------------|---0--|
G|--------------------------------------------------------------------|---7--|
D|--------------------------------------------------------------------|---9--|
A|--------------------------------------------------------------------|--10--|
E|--0---0---0--xx--3---3---3--xx----7------7------3------3------------|------|
1. Alone, hovering in space
2. How silence could be so sonorous and deep

Chorus
e|-------------------------------------------------------------------------|
B|--0-0-0-0----------0-0-0-0----------0-0-0-0----------0-0-0-0-------------|
G|--7-7-7-7---7--7---7-7-7-7---7--7---7-7-7-7---7--7---7-7-7-7---9p7-9p7---|
D|--9-9-9-9---9--9---9-9-9-9---9--9---9-9-9-9---9--9---9-9-9-9---9---9-----| x3
A|--10101010-10-10---10101010-10-10--10101010--10-10--10101010-------------|
E|-------------------------------------------------------------------------|
Wherever you are, Send out a flare
This is an attempt to connect, edify and dissect


e|-------------------------------------------------------------------------|
B|--0-0-0-0----------0-0-0-0----------0-0-0-0------------------------------|
G|--7-7-7-7---7--7---7-7-7-7---7--7---7-7-7-7---7h9-999999-----------------|
D|--9-9-9-9---9--9---9-9-9-9---9--9---9-9-9-9---9---999999-----------------|
A|--10101010-10-10---10101010-10-10--10101010--10--------------------------|
E|-------------------------------------------------------------------------|
Send a light, Send repair, From surface to air




e|----------------------------------------------------------------------------|
B|----------------------------------------------------------------------------|
G|--------------------7---9--9--9-----------------------------7--9--9--9--9p7-|
D|--------------7--9------9--9--9-----------------------7--9--------9--9--9---|
A|--7--9---10-------------------------------7---9--10-------------------------|
E|----------------------------------------------------------------------------|

e|-----------------------------------------------------------------------12---|
B|-----------------------------------------------------------------------12---|
G|--------------------7---9--9--9p7---------------------------7--9------------|
D|--------------7--9------9--9--9-----------------------7--9------------------|
A|--7--9---10-------------------------------7---9--10-------------------------|
E|----------------------------------------------------------------------------|


Verse
e|---------------------------------------------------------------------------|
B|---------------------------------------------------------------------------|
G|---------------------------------------------------------------------------|
D|---------------------------------------------------------------------------|
A|---------------------------------------------------------------------------|
E|--0---0---0--xx--3---3---3--xx---7---0-7-10-7-0-7-10-7-0-7-10-7------------|
1. Do you read me, mayday
2. Is there anyone out there


e|---------------------------------------------------------------------------|
B|---------------------------------------------------------------------------|
G|---------------------------------------------------------------------------|
D|---------------------------------------------------------------------------|
A|---------------------------------------------------------------------------|
E|--0---0---0--xx--3---3---3--xx----7------7------3------3-------------------|
1. I am in search of
2. I am high and dry

e|---------------------------------------------------------------------------|
B|---------------------------------------------------------------------------|
G|---------------------------------------------------------------------------|
D|---------------------------------------------------------------------------|
A|---------------------------------------------------------------------------|
E|--0---0---0--xx--3---3---3--xx---7---0-7-10-7-0-7-10-7-0-7-10-7------------|
1. But I'm caught in a knot, Goes to say
2. Suffering is a theme, but reckoning is the 

e|--------------------------------------------------------------------|---0--|
B|--------------------------------------------------------------------|---0--|
G|--------------------------------------------------------------------|---7--|
D|--------------------------------------------------------------------|---9--|
A|--------------------------------------------------------------------|--10--|
E|--0---0---0--xx--3---3---3--xx----7------7------3------3------------|------|
1. So below is as above
2. only reason why


e|-------------------------------------------------------------------------|
B|--0-0-0-0----------0-0-0-0----------0-0-0-0----------0-0-0-0-------------|
G|--7-7-7-7---7--7---7-7-7-7---7--7---7-7-7-7---7--7---7-7-7-7---9p7-9p7---|
D|--9-9-9-9---9--9---9-9-9-9---9--9---9-9-9-9---9--9---9-9-9-9---9---9-----| x3
A|--10101010-10-10---10101010-10-10--10101010--10-10--10101010-------------|
E|-------------------------------------------------------------------------|
We suffer at all, To send out a flare
This is an attempt to connect, Edify and dissect
Send a light, Send repair


e|-------------------------------------------------------------------------|
B|--0-0-0-0----------0-0-0-0----------0-0-0-0------------------------------|
G|--7-7-7-7---7--7---7-7-7-7---7--7---7-7-7-7---7h9-999999-----------------|
D|--9-9-9-9---9--9---9-9-9-9---9--9---9-9-9-9---9---999999-----------------|
A|--10101010-10-10---10101010-10-10--10101010--10--------------------------|
E|-------------------------------------------------------------------------|
From surface to air


e|--0---3---0---0---3--2-----0---3---0---0-----------------------------------|
B|--5---3---0---3---------3--5---3---0---3-----------------------------------|
G|--4---4---0---2------------4---4---0---2-----------------------------------|
D|--5---5---2---0------------5---5---2---0-----------------------------------|
A|--5---5---2---0------------5---5---2---0-----------------------------------|
E|------3---0--------------------3---0---------------------------------------|
Is there anyone, is there anyone, is there anyone out there?

Intro
e|-------------------------------------------------------|
B|------------0-----------0------------------------------|
G|----------0---0-------0---0----------------------------|
D|-------------------------------------------------------|
A|------------------------------10----12----14-----------|
E|-3-----7----------10-----------------------------------|

e|-------------------------------------------------------|
B|------------0-----------0------------------------------|
G|----------0---0-------0---0----------------------------|
D|-------------------------------------------------------|
A|------------------------------10----12----10-----------|
E|-3-----7----------10-----------------------------------|

e|-------------------------------------------------------|
B|------------0-----------0------------------------------|
G|----------0---0-------0---0----------------------------|
D|-------------------------------------------------------|
A|------------------------------10----12----14-----------|
E|-3-----7----------10-----------------------------------|
Suffering is a theme But reckoning

e|-------------------------------------------------------|
B|------------0-----------0------------------------------|
G|----------0---0-------0---0----------------------------|
D|-------------------------------------------------------|
A|------------------------------10----12----10-----------|
E|-3-----7----------10-----------------------------------|
is the only reason why, We suffer at all

e|------------------------------------------------------------|
B|------------0-----------0-----------------------------------|
G|----------0---0-------0---0---------------------------------|
D|------------------------------------------------------------|
A|------------------------------10----12----14-1414141414(etc)|
E|-3-----7----------10----------------------------------------|
So send out a flare

e|-------------------------------------------------------------------------|
B|--0-0-0-0----------0-0-0-0----------0-0-0-0----------0-0-0-0-------------|
G|--7-7-7-7---7--7---7-7-7-7---7--7---7-7-7-7---7--7---7-7-7-7---9p7-9p7---|
D|--9-9-9-9---9--9---9-9-9-9---9--9---9-9-9-9---9--9---9-9-9-9---9---9-----| x4
A|--10101010-10-10---10101010-10-10--10101010--10-10--10101010-------------|
E|-------------------------------------------------------------------------|
So send out a flare


e|----------------------------------------------------------------------------|
B|----------------------------------------------------------------------------|
G|--------------------7---9--9--9-----------------------------7--9--9--9--9p7-|
D|--------------7--9------9--9--9-----------------------7--9--------9--9--9---|
A|--7--9---10-------------------------------7---9--10-------------------------|
E|----------------------------------------------------------------------------|
This is an attempt to connect


e|----------------------------------------------------------------------------|
B|----------------------------------------------------------------------------|
G|--------------------7---9--9--9-----------------------------7--9--9--9--9p7-|
D|--------------7--9------9--9--9-----------------------7--9--------9--9--9---|
A|--7--9---10-------------------------------7---9--10-------------------------|
E|----------------------------------------------------------------------------|
This is an attempt to connect


e|----------------------------------------------------------------------------|
B|----------------------------------------------------------------------------|
G|--------------------7---9--9--9-----------------------------7--9--9--9--9p7-|
D|--------------7--9------9--9--9-----------------------7--9--------9--9--9---|
A|--7--9---10-------------------------------7---9--10-------------------------|
E|----------------------------------------------------------------------------|
This is an attempt to connect

e|----------------------------------------------------------------------------|
B|----------------------------------------------------------------------------|
G|--------------------7---9--9--9-----------------------------7--9--9--9--9p7-|
D|--------------7--9------9--9--9-----------------------7--9--------9--9--9---|
A|--7--9---10-------------------------------7---9--10-------------------------|
E|----------------------------------------------------------------------------|
This is an attempt to connect
Edift and dissect
Send a light, Send repair
From surface to air!
comments
We did not receive enough feedback on this tab! Please rate:
print report bad tab
1 2 3 4 5
I want to post or [tab]
guest
You may want to rate the tab now too:
select rating
Please do not post tabs as comments. Select "correction" instead!