Oops, an error
Loading. Please wait.

The Warmth Tab

version 3
version 3
by Incubus
4,515 views 3 this week
5 commentsread comments
1 2 3 4 5
x 6
add to favorites
launch autoscroll
font size
0
reset
how to read this tab
guitar tuner
backing track
0:00
0:00
×
Best way to learn
"The Warmth"
Autoscroll
slow
fast
+/-
esc
set tempo
stop
Artist: Incubus
Song: The Warmth
Album: Make Yourself

This is a great song from Make Yourself that’s always tabbed wrong. 

Effects used: delay, octave set down one octave 
(boss OC-2), flanger (boss BF-2), pitch shifter, rotary speaker simulator (hughes&kettner rotosphere)

Intro, Verse riff (clean tone, delay)

^indicates half step bend

E--------------------------------19-----19----------
B—19^ 17-----17-------------------------------------
G--------19-----19-17-16-----16-----16--------------
D---------------------------------------------------
A---------------------------------------------------
E---------------------------------------------------

Post intro and chorus bit (dist., octaver, flange)

E--------------------------------------------------------
B--17--17-17-17-17-17/-13-13-13-13--8-8-8-8-8--5-5-5-5-5-
G--16-16-16-16-16-16/--12-12-12-12--7-7-7-7-7--4-4-4-4-4-
D--------------------------------------------------------
A--------------------------------------------------------
E--------------------------------------------------------

Interlude (dist., pitch shifter-set to harmonizer)

E-----------------------------------------------------
B-----------------------------------------------------
G-----------------------------------------------------
D----9-7-9-7-9-7-9-7-9-7-7-9-7-9-7-7-9-repeat a lot---
A-----------------------------------------------------
E-----------------------------------------------------

Then ever so often play this at the end of the interlude riff.



E-----------------------------------------
B-----------------------------------------
G-----------------------------------------
D—9h10p9h10p9h10--------------------------
A-----------------------------------------
E-----------------------------------------

Last chorus (heavy dist.)

E-------------------------------------------------------
B----0-0-0-0-0--0-0-0-0---------------------------------
G----9-9-9-9-9--9-9-9-9---------------------------------
D----x-x-x-x-x--x-x-x-x----7-7-7-7-7--4-4-4-4-4---------
A----7-7-7-7-7--7-7-7-7----5-5-5-5-5--2-2-2-2-2---------
E---------------8-8-8-8----3-3-3-3-3--0-0-0-0-0---------

Little lead riff played during final chorus (dist., leslie effect)

E----------------------7----7-------
B--7^--5---5------------------------
G--------7----7--5--4----4----------
D-----------------------------------
A-----------------------------------
E-----------------------------------
Suggest correction
comments
print report bad tab
5 comments total. Showing first comments.
0 reply
Ethereal 10 Mar 05, 2002 07:00 PM

hey dude try in the last chorus, try
G--7---4
D--X---X
A--5---2
E--3---0
instead of
D--7---4
A--5---2
E--3---0

0 reply
kraftkid182 181 Mar 07, 2002 07:00 PM

thanks, ethereal, but i have the book, and this is how it's played

-2 reply
chris030482 0 Mar 24, 2002 07:00 PM

you dont have the book you fucking idiot, everythings all wrong, ive seen mike play this at every concert since the cd came out and he plays the one part like this
----------------
----------------
----------------
14-10-5-2-------
14-10-5-2-------
12-8 -3-0-------
4x 3x 4x 3x
listen to the song for the timing

guest
You may want to rate the tab now too:
select rating
Wanna post a correction for this tab? Suggest correction