Oops, an error
Loading. Please wait.

The Warmth bass

version 4
version 4
by Incubus
11,155 views 24 this week
1 commentread comment
1 2 3 4 5
x 4
add to favorites
×
Save as Personal and add changes to this tab that will be seen only by you. Learn more ›
×
You can save this tab as Personal to edit and correct it or add notes. All changes will be seen only by you. Learn more »
launch autoscroll
font size
0
reset
guitar tuner
backing track
0:00
0:00
edit
Autoscroll
slow
fast
+/-
esc
set tempo
stop
Author
Difficulty
-------------------------------------------------------------------------------
			     SONG NAME The Warmth - Band Name Incubus
-------------------------------------------------------------------------------

Tabbed By : xTKsaucex
e-mail: xTKsaucex@googlemail.com

Tuning: standard

  0.00 - 0.29       :Bass Intro/ Outro Verse / Verse: 
G|-----------------|--------------------------------------| Repeat 4x
D|-----------------|--------------------------------------|
A|-----------------|-9b-7577-----7------------------------|
E|-----------------|----------7-8--8-----3-3-33-3-0-0-0---|

G|-----------------| I think this is a pull off on the 7th fret, either
D|-----------------| that or just the open E string. 
A|-----------------| 
E|---7p-----7p-----| 
                     :Verse 1:
G|-----------------|--------------------------------------| Repeat 4x
D|-----------------|--------------------------------------|
A|-----------------|-9b-7577-----7------------------------|
E|-----------------|----------7-8--8-----3-3-33-3-0-0-0---|
  :Chorus:
G|-------------------------------------------| Repeat 4x
D|-------------------------------------------|
A|----7-77-777-7-----------------------------|
E|--------------5h8-8----3-33-333-3---0-0--0-|

                     :Verse 2:
G|-----------------|--------------------------------------| Repeat 4x
D|-----------------|--------------------------------------|
A|-----------------|-9b-7577-----7------------------------|
E|-----------------|----------7-8--8-----3-3-33-3-0-0-0---|

  :Chorus:

  :Interlude pt1: "Grow old....."
G|---------------------------------------------|
D|---------------------------------------------|
A|---------------------------------------------|
E|-7-7--7--77-77--7--7-7-7-7--7--77-77--7--7-7-|
   :Interlude pt2:
G|-------------------------------------------------|
D|-------------------------------------------------|
A|-------------------------------------------------| :tens:
E|-7-7--7--77-77--7--7-7-7-7--7--77-1010--10--10-10|
   :Interlude pt3:
G|-------------------------------------------------|
D|-------------------------------------------------|
A|-------------------------------------------------|:tens: just play as 
E|-7-7--7--77-88--8--8-8-7-7--7--77-1010-101010----| | many D's (tens) as needed 

   :Outro Chorus:
G|-------------------------------------------| Repeat 4x
D|-------------------------------------------| Played slightly different
A|----7-7-77-7-------------------------------|
E|--------------5h8-8r88---3-3-33-3---00-0r00|


   :Outro verse:

| p  pull-off
| b  Pitch Bend
| r  eighth rest
| h  hammer on

:Notes: where ive put the (r)eighth rests in is just 
to help you with timing so really listen out to how 
it is played at that point to get a good rythem. Best 
to listen to percussion at the interlude bits to again 
help with timing. 

Enjoy.

===============================================================================


            
            
Suggest correction
Creating personal tab
Creating personal tab
You can edit any tab online and save it as your Personal.

You can edit, replace or remove any tab part or add personal notes – all changes will be seen only by you.

Personal tabs can be accessed anytime from any device, even offline.
Learn more »
comments
print report bad tab
1 comment total.
0 reply
xTKsaucex 90 Jan 09, 2010 10:01 AM

sorry guys, just realised I had the interlude parts on the wrong string =P, should be E - just re submitted it. Again sorry.

guest
You may want to rate the tab now too:
select rating
Wanna post a correction for this tab? Suggest correction