Oops, an error
Loading. Please wait.

The Warmth Acoustic tab

version 7
by Incubus
8,066 views 6 this week
3 commentsread comments
1 2 3 4 5
x 3
add to favorites
×
Save as Personal and add changes to this tab that will be seen only by you. Learn more ›
×
You can save this tab as Personal to edit and correct it or add notes. All changes will be seen only by you. Learn more »
launch autoscroll
font size
0
reset
how to read this tab
guitar tuner
backing track
0:00
0:00
edit
Autoscroll
slow
fast
+/-
esc
set tempo
stop
this tab is "the warmth - acoustic", by incubus. this is 100% correct, and once
you get the hang of playing it, you will understand. i have seen a couple tabs
for this on the net, and they are all incorrect in places.


intro: 0:00~1:20

   |----12---12----12---12---8---8---8---8---3---3---3---3---0---0---0---0--||  
   |-12---------12---------8-------8-------3-------3-----------5-------5----||    
   |-------9----------9--------9-------9-------4-------4---4-------4--------|x2  
   |------------------------------------------------------------------------||
   |------------------------------------------------------------------------||
   |------------------------------------------------------------------------||

   then  
   |---------------------------------------------------------------||
   |---------------------------------------------------------------||
   |-12/9--9-9-9-9-x-x--9--9--9---9--9---4--4-4-4-4-4-4-x-x--0-0-0-||
   |--x/x--x-x-x-x-x-x--10-10-10--10-10--5--5-5-5-5-5-5-x-x--4-4-4-|x4
   |-10/7--7-7-7-7-x-x--10-10-10--10-10--5--5-5-5-5-5-5-x-x--2-2-2-||
   |--0/0--0-0-0-0-x-x--8--8--8---8--8---3--3-3-3-3-3-3-x-x--0-0-0-||  
   
   then
   |----12---12----12---12---8---8---8---8---3---3---3---3---0---0---0---0--||
   |-12---------12---------8-------8-------3-------3-----------5-------5----||
   |-------9----------9--------9-------9-------4-------4---4-------4--------|x1   
   |------------------------------------------------------------------------||   
   |------------------------------------------------------------------------||  
   |------------------------------------------------------------------------|| 


verse: ~1:20~1:45 (oh not to close my eyes......)

   |---------------------------------------------------------------||
   |---------------------------------------------------------------||
   |-12/9--9-9-9-9-x-x--9--9--9---9--9---4--4-4-4-4-4-4-x-x--0-0-0-||
   |--x/x--x-x-x-x-x-x--10-10-10--10-10--5--5-5-5-5-5-5-x-x--4-4-4-|x4
   |-10/7--7-7-7-7-x-x--10-10-10--10-10--5--5-5-5-5-5-5-x-x--2-2-2-||
   |--0/0--0-0-0-0-x-x--8--8--8---8--8---3--3-3-3-3-3-3-x-x--0-0-0-||



1st chorus: ~1:45~2:10 (so dont let the world......)

   |----12---12----12---12---8---8---8---8---3---3---3---3---0---0---0---0--||  
   |-12---------12---------8-------8-------3-------3-----------5-------5----||     
   |-------9----------9--------9-------9-------4-------4---4-------4--------|x4    
   |------------------------------------------------------------------------||     
   |------------------------------------------------------------------------||      
   |------------------------------------------------------------------------||   

then solo: ~2:10-2:25 (x1)

   |---------------------------------------------------------------------------
   |---------------------------------------------------------------------------
   |-14-14-14-12-12-12-12-12h14-14p12-12-12-12-11-11-11-11\9-9-11-11-9-11-11/12
   |---------------------------------------------------------------------------
   |---------------------------------------------------------------------------
   |---------------------------------------------------------------------------

   |-12-14------------------------------                                         
   |-------12---------------------------
   |----------14-12/14------------------
   |-------------------12-12-11-12/14-14
   |------------------------------------
   |------------------------------------

verse 2: ~2:25~2:50 (so do you think i should.....)

   |---------------------------------------------------------------||
   |---------------------------------------------------------------||
   |-12/9--9-9-9-9-x-x--9--9--9---9--9---4--4-4-4-4-4-4-x-x--0-0-0-||
   |--x/x--x-x-x-x-x-x--10-10-10--10-10--5--5-5-5-5-5-5-x-x--4-4-4-|x4
   |-10/7--7-7-7-7-x-x--10-10-10--10-10--5--5-5-5-5-5-5-x-x--2-2-2-||
   |--0/0--0-0-0-0-x-x--8--8--8---8--8---3--3-3-3-3-3-3-x-x--0-0-0-||

2nd chorus: ~2:50~3:15 (so dont let the world....)

   |----12---12----12---12---8---8---8---8---3---3---3---3---0---0---0---0--||  
   |-12---------12---------8-------8-------3-------3-----------5-------5----||     
   |-------9----------9--------9-------9-------4-------4---4-------4--------|x4    
   |------------------------------------------------------------------------||
   |------------------------------------------------------------------------||      
   |------------------------------------------------------------------------||   

interlude: ~3:15~3:55

   |---------------------------------||
   |---------------------------------||
   |---------------------------------|x11
   |-9p7-9p7-9p7-9-9p7-9-9p7-9p7-9p7-||
   |-9p7-9p7-9p7-9-9p7-9-9p7-9p7-9p7-||
   |---------------------------------||

3rd chorus: ~3:55~4:20  (so dont let the world...)

   |---------------------------------------------------------------|
   |---------------------------------------------------------------|
   |-9--9-9-9-9-9-9-x-x--9--9--9---9--9---4--4-4-4-4-4-4-x-x-----0-|
   |-9--9-9-9-9-9-9-x-x--10-10-10--10-10--5--5-5-5-5-5-5-x-x-----4-|
   |-7--7-7-7-7-7-7-x-x--10-10-10--10-10--5--5-5-5-5-5-5-x-x-----2-|
   |-0--0-0-0-0-0-0-x-x--8--8--8---8--8---3--3-3-3-3-3-3-x-x-0-0-0-|

outro: ~4:20~4:32

   |---------------------------------------------------------------||
   |---------------------------------------------------------------||
   |-12/9--9-9-9-9-x-x--9--9--9---9--9---4--4-4-4-4-4-4-x-x--0-0-0-||
   |--x/x--x-x-x-x-x-x--10-10-10--10-10--5--5-5-5-5-5-5-x-x--4-4-4-|x2
   |-10/7--7-7-7-7-x-x--10-10-10--10-10--5--5-5-5-5-5-5-x-x--2-2-2-||
   |--0/0--0-0-0-0-x-x--8--8--8---8--8---3--3-3-3-3-3-3-x-x--0-0-0-||

       ~4:35~4:45 (where did it go?...)

   |-------------------------------19----19----19--||
   |--19b-17----17---------------------------------||
   |---------19----19-----17-17-16----16----16-----|x4
   |-----------------------------------------------||
   |-----------------------------------------------||
   |-----------------------------------------------||
Suggest correction
Creating personal tab
Creating personal tab
You can edit any tab online and save it as your Personal.

You can edit, replace or remove any tab part or add personal notes – all changes will be seen only by you.

Personal tabs can be accessed anytime from any device, even offline.
Learn more »
Give kudos to tab author, rate the tab!
1 2 3 4 5
comments
print report bad tab
3 comments total.
0 reply
cefoskey 50 Jan 14, 2004 07:00 PM

No, its not 100% correct. Watch the DVD, thats not barre G chord in the refrain, its a 3-5-7 stretch on the EAD.

0 reply
throwshapes 139 Feb 21, 2010 11:45 AM

Also, during the interlude he sometimes hammers on the A string like this

|---------------------------------------------
|---------------------------------------------
|---------------------------------------------
|-9p7-9p7-9p7-9-9p7-9-9p7-9p7-9p7-------------
|-9p7-9p7-9p7-9-9p7-9-9p7-9p7-9p7--9-9h10-9h10
|---------------------------------------------

0 reply
throwshapes 139 Feb 21, 2010 11:45 AM

Also, during the interlude he sometimes hammers on the A string like this

|---------------------------------------------
|---------------------------------------------
|---------------------------------------------
|-9p7-9p7-9p7-9-9p7-9-9p7-9p7-9p7-------------
|-9p7-9p7-9p7-9-9p7-9-9p7-9p7-9p7--9-9h10-9h10
|---------------------------------------------

guest
Wanna post a correction for this tab? Suggest correction