Oops, an error
Loading. Please wait.

Trust Fall intro tab

by Incubus
1,162 views 12 this week
2 commentsread comments
1 2 3 4 5
1 last vote to show rating
add to favorites
×
Save as Personal and add changes to this tab that will be seen only by you. Learn more ›
×
You can save this tab as Personal to edit and correct it or add notes. All changes will be seen only by you. Learn more »
launch autoscroll
font size
0
reset
how to read this tab
guitar tuner
edit
Autoscroll
slow
fast
+/-
esc
set tempo
stop
Author
Difficulty
Artist: Incubus
Song: Trust Fall
Part of the song: intro

(first time around)

e|-----------------------------------12----------|------------0------------------------0--------------|
B|-------15-------15-------------14--------14----|---------12-------12-------------12--------12-------|
G|-----------------------------------------------|----------------------------------------------------|
D|-----------------------------------------------|----------------------------------------------------|
A|----14----14-------14-------12--------------12-|------10-------------10-------10--------------10----|
E|-0-----------------------0---------------------|---0-----------------------0------------------------|


e|----------0------------------------0-----------|------------0--------------------0-----------0------|
B|-------7--------7--------------8---------8-----|---------5--------5---------------------------------|
G|-----------------------------------------------|----------------------------------------------------|
D|-----------------------------------------------|------------------------------5-----5-----7-----7---|
A|----5--------------5--------7---------------7--|------3--------------3------------------------------|
E|-0-----------------------0---------------------|---0-----------------------3-----------5------------|

(rest of the times)

e|----------12-----------------------12----------|------------0------------------------0--------------|
B|-------15-------15-------------14--------14----|---------12-------12-------------12--------12-------|
G|-----------------------------------------------|----------------------------------------------------|
D|-----------------------------------------------|----------------------------------------------------|
A|----14-------------14-------12--------------12-|------10-------------10-------10--------------10----|
E|-0-----------------------0---------------------|---0-----------------------0------------------------|


e|----------0------------------------0-----------|------------0--------------------0-----------0------|
B|-------7--------7--------------8---------8-----|---------5--------5---------------------------------|
G|-----------------------------------------------|----------------------------------------------------|
D|-----------------------------------------------|------------------------------5-----5-----7-----7---|
A|----5--------------5--------7---------------7--|------3--------------3------------------------------|
E|-0-----------------------0---------------------|---0-----------------------3-----------5------------|

            
            
Suggest correction
Creating personal tab
Creating personal tab
You can edit any tab online and save it as your Personal.

You can edit, replace or remove any tab part or add personal notes – all changes will be seen only by you.

Personal tabs can be accessed anytime from any device, even offline.
Learn more »
Give kudos to tab author, rate the tab!
1 2 3 4 5
comments
print report bad tab
2 comments total.
0 reply
joshyx1404 10 Jun 09, 2016 12:14 PM

Almost perfect, the last 2 beats if the last bar are wrong. If you listen carefully and/or look at the live version on youtube, you can see that he plays 6th string 3rd fret, 3rd string open, 1st string open (with the same sequence as you described) and then 6th string 5th fret, 3rd string open, 1st string open. (I have no idea how to write tabs using the

, please help :/ )

0 reply
dxm432 38 Jun 09, 2016 01:31 PM

So you are suggesting this?
e|------------0--------------------0-----------0------|
B|---------5--------5---------------------------------|
G|------------------------------0-----------0---------|
D|----------------------------------------------------|
A|------3--------------3------------------------------|
E|---0-----------------------3-----------5------------|
I believe you are correct.

guest
You may want to rate the tab now too:
select rating
Wanna post a correction for this tab? Suggest correction