Oops, an error
Loading. Please wait.

Vitamin Tab

version 3
version 3

Whole song

Interactive

11,214 views 6 this week
no commentswrite comment
1 2 3 4 5
excellent!
x 13
add to favorites
launch autoscroll
font size
0
reset
how to read this tab
guitar tuner
Tab Pro tools
  • play this tab
  • loop segment
  • change instrument
  • show fretboard
  • metronome
×
Best way to learn
"Vitamin"
Autoscroll
slow
fast
+/-
esc
set tempo
stop
Contributor
Incubus: Vitamin
Standard tuning: E A D G B e
tabbed by thedarkwin

Intro: clean w/ phaser                          8x
--------------------------------------------------|
--------------------------------------------------|
--------------------------------------------------|
--------------------------------------------------|
--7-7-----3h5---------7-7-----3h5-----------------|
------0-0-------0-0-------0-0-------0-0-----------|

w/ distortion                                   4x
--------------------------------------------------|
--------------------------------------------------|
--------------------------------------------------|
--9-9----------------9-9--------------------------|
--7-7-----3h5--------7-7-----3h5------------------|
------0-0-------0-0------0-0-------0-0------------|

--12-12-12-12-12-12-12-12-12-12-12-12-12-12-12-12-|
--11-11-11-11-11-11-11-11-11-11-11-11-11-11-11-11-|
--9--9--9--9--9--9--9--9--9--9--9--9--9--9--9--9--|
--------------------------------------------------|
--------------------------------------------------|
--------------------------------------------------|

pre-verse: intro riff 1x

verse: guitar w/ dealy w/ intro riff overdub
---------------------------------------------------|
--5-(5)(5)(5)(5)(5)-5-(5)(5)(5)(5)(5)-6-(6)(6)(6)--|
--4-(4)(4)(4)(4)(4)-4-(4)(4)(4)(4)(4)-5-(5)(5)(5)--|
---------------------------------------------------|
---------------------------------------------------|
---------------------------------------------------|
                                                    4x
---------------------------------------------------|
--5-(5)(5)(5)(5)(5)-5-(5)(5)(5)-6-(6)(6)(6)(6)(6)--|
--4-(4)(4)(4)(4)(4)-4-(4)(4)(4)-5-(5)(5)(5)(5)(5)--|
---------------------------------------------------|
---------------------------------------------------|
---------------------------------------------------|

chorus: distrotion                       4x
-------------------------------------------|
-------------------------------------------|
--9-9----------------7-7-------------------|
--9-9-----------5-5--7-7--3-3--------2-2---|
--7-7-----3h5---5-5--5-5--3-3--------2-2---|
------0-0-------3-3-------1-1--5h7---0-0---|

pre-verse 1x
verse     4x
chorus    4x

end 2nd chorus w/                                 2x
--12-12-12-12-12-12-12-12-12-12-12-12-12-12-12-12-|
--11-11-11-11-11-11-11-11-11-11-11-11-11-11-11-11-|
--9--9--9--9--9--9--9--9--9--9--9--9--9--9--9--9--|
--------------------------------------------------|
--------------------------------------------------|
--------------------------------------------------|

breakdown 15x                             4x
----0-----|--------------------------------|
----0-----|--------------------------------|
----------|--------------------------------|
----------|--------------------------------|
----------|-------7------------------------|
----------|-------------0--8---7----7--3/--|
                                           3x
-------------------------------------------|
-------------------------------------------|
--9----9-----------------------------------|
--9----9-----10--10-10--9----9--9--5/------|
--7----7-----10--10-10--9----9--9--5/------|
----------0--8---8--8---7----7--7--3/------|

--------------------------------------------|
--------------------------------------------|
--9----9------------------------------------|
--9----9-----10--10-10--9-9-9-9-9-9-9-9-9-9-|
--7----7-----10--10-10--9-9-9-9-9-9-9-9-9-9-|
----------0--8---8--8---7-7-7-7-7-7-7-7-7-7-|

intro riff 4x
w/ distortion overdub
--------------------------------------------|
--------------------------------------------|
--------------------------------------------|
----2--2---------------------2--2-----------|
----2--2---------------------2--2-----------|
----0--0---------------------0--0-----------|

chorus 4x

then...outro             4x
---------------------------|
---------------------------|
--9-9----------------------|
--9-9-----------2-2-2------|
--7-7-----3h5---2-2-2------|
------0-0-------0-0-0------|
comments
print report bad tab
I want to post or [tab]
guest
You may want to rate the tab now too:
select rating
Please do not post tabs as comments. Select "correction" instead!