Oops, an error
Loading. Please wait.

While All The Vultures Feed bass

version 1
version 1

Whole song

Interactive

by Incubus
1,711 views 1 this week
1 commentread comment
1 2 3 4 5
2 more votes to show rating
add to favorites
×
Save as Personal and add changes to this tab that will be seen only by you. Learn more ›
×
You can save this tab as Personal to edit and correct it or add notes. All changes will be seen only by you. Learn more »
launch autoscroll
font size
0
reset
guitar tuner
edit
Autoscroll
slow
fast
+/-
esc
set tempo
stop
Difficulty
intermediate
While All The Vultures Feed Bass Tab

Had this lying around for a while, decided to upload. 




Intro
G|---------------------------------------------------------------------------|
D|---------------------------------------------------------------------------|
A|---------------------------------------------------------------------------|
E|---00--10--10-10-0-0-10-10-10--00-9-9-9-0--0-0---9-9-9---------------------|

Verse
G|---------------------------------------------------------------------------|
D|-----------21-----------19----19-------------------------------------------|
A|----19-19-----19--22-22----22------19~-------------------------------------|
E|---------------------------------------------------------------------------|

Chorus  (replacing slides with hammer-ons works too..)  note: () indicate fill
G|---------------------------------------------------------------------|
D|-----------------------------------------------(9/10/9)--------------|
A|---7-0-7-9--------------10/12-12-12--10/12-12------------------------|
E|-----------8-8-8-8---------------------------------------------------|
      
    Bridge-ish part
G|-----------------------------------------------------------------------|
D|-----------------------------------------------------------------------|
A|--000000000000000-----12(x3)-10(x3)-9(x3)-10(x3)-9(x3)-7(x3)----(5x12)-|
E|------------------------------------------------------------7(x3)------|



That's all the parts. 

            
            
Suggest correction
Creating personal tab
Creating personal tab
You can edit any tab online and save it as your Personal.

You can edit, replace or remove any tab part or add personal notes – all changes will be seen only by you.

Personal tabs can be accessed anytime from any device, even offline.
Learn more »
Give kudos to tab author, rate the tab!
1 2 3 4 5
comments
print report bad tab
1 comment total.
0 reply
13Kelly13 124 Mar 17, 2011 08:26 AM

There are parts missing in the verse, its also easier to play the verse, rather than on the A and D strings but on the G and D strings a bit lower down the neck.

Good job though, it gives a good idea of how to play the song.

guest
Wanna post a correction for this tab? Suggest correction