Oops, an error
Loading. Please wait.

Wish You Were Here Tab

version 4
by Incubus
1,163 views 1 this week
2 commentsread comments
1 2 3 4 5
x 5
add to favorites
launch autoscroll
font size
0
reset
how to read this tab
guitar tuner
backing track
0:00
0:00
×
Best way to learn
"Wish You Were Here"
Autoscroll
slow
fast
+/-
esc
set tempo
stop
Song: Wish You Were Here
Band: Incubus
Album: Morning View
Tuning: Standard
Transcribed by: Matt Hritz
Email: abyss1212@hotmail.com

If you find anything wrong with this, email me with your proof. Cheers.

Intro: Fig. 1
light distortion
|--------------------------------------------------|
|--------------------------------------------------|
|---4-4-4-0-4-4-4-4-4-0----------------2-2-2-2-0-0-|
|---2-2-2-2-2-2-2-2-2-0-4-4-4/7-7-7--2-2-2-2-2-2-0-|
|-0---------2-----------4-4-4/7-7-7--2-2-2-0-0-0---|
|-----------0-----------2-2-2/5-5-5--0-------------|

|--------------------------------------------------|
|--------------------------------------------------|
|---4-4-4-0-4-4-4-4-4-0-------------------9/11-11--|
|---2-2-2-2-2-2-2-2-2-0-4-4-4/7-7-7--2-0--x-----x--|
|-0---------2-----------4-4-4/7-7-7--2-0--7/9---9--|
|-----------0-----------2-2-2/5-5-5--0-------------|

Fig. 2 Distortion

|--------------------------------------------------|
|--------------------------------------------------|
|-4-4-4-4-0-4-4-4-4-4-0----------------2-2-2-2-0-0-|
|-2-2-2-2-2-2-2-2-2-2-0-4-4-4/7-7-7--2-2-2-2-2-2-0-|
|-0---------2-----------4-4-4/7-7-7--2-2-2-2-2-0---|
|-----------0-----------2-2-2/5-5-5--0---0-0-0-----|

|--------------------------------------------------|
|--------------------------------------------------|
|-4-4-4-4-0-4-4-4-4-4-0-------------------9/11-11--|
|-2-2-2-2-2-2-2-2-2-2-0-4-4-4/7-7-7--2-0--x-----x--|
|-0---------2-----------4-4-4/7-7-7--2-0--7/9---9--|
|-----------0-----------2-2-2/5-5-5--0-------------|

|--------------------------------------------------|
|--------------------------------------------------|
|-4-4-4-4-0-4-4-4-4-4-0----------------2-2-2-2-0-0-|
|-2-2-2-2-2-2-2-2-2-2-0-4-4-4/7-7-7--2-2-2-2-2-2-0-|
|-0---------2-----------4-4-4/7-7-7--2-2-2-2-2-0---|
|-----------0-----------2-2-2/5-5-5--0---0-0-0-----|

|--------------------------------------------------|
|--------------------------------------------------|
|-4-4-4-4-0-4-4-4-4-4-0----------------2-2-2-2-0-0-|
|-2-2-2-2-2-2-2-2-2-2-0-4-4-4/7-7-7--2-2-2-2-2-2-0-|
|-0---------2-----------4-4-4/7-7-7--2-2-2-2-2-0---|
|-----------0-----------2-2-2/5-5-5--0---0-0-0-----|

Verse: Fig 1
light distortion, delay

|-----0-----------------------12----------|
|---7---7---7---------0-----------9--10---|
|-9-------9---------------------------9---|
|--------------11--9-----9h11-------------|
|-----------------------------------------|
|-----------------------------------------|

|-----0--------------------------------------0-0-0-0-
|---7---7---7---------0---------9------------0-0-0-0-
|-9-------9-------------------9---9----11-9----------
|--------------11--9-----9h11-------11---------------
|----------------------------------------------------
|----------------------------------------------------

Chorus: Fig 1
Distortion

|--------------------------------------------------|
|--------------------------------------------------|
|-4-4-4-4-0-4-4-4-4-4-0----------------2-2-2-2-0-0-|
|-2-2-2-2-2-2-2-2-2-2-0-4-4-4/7-7-7--2-2-2-2-2-2-0-|
|-0---------2-----------4-4-4/7-7-7--2-2-2-2-2-0---|
|-----------0-----------2-2-2/5-5-5--0---0-0-0-----|

|--------------------------------------------------|
|--------------------------------------------------|
|-4-4-4-4-0-4-4-4-4-4-0----------------2-2-2-2-0-0-|
|-2-2-2-2-2-2-2-2-2-2-0-4-4-4/7-7-7--2-2-2-2-2-2-0-|
|-0---------2-----------4-4-4/7-7-7--2-2-2-2-2-0---|
|-----------0-----------2-2-2/5-5-5--0---0-0-0-----|

|--------------------------------------------------|
|--------------------------------------------------|
|-4-4-4-4-0-4-4-4-4-4-0----------------2-2-2-2-0-0-|
|-2-2-2-2-2-2-2-2-2-2-0-4-4-4/7-7-7--2-2-2-2-2-2-0-|
|-0---------2-----------4-4-4/7-7-7--2-2-2-2-2-0---|
|-----------0-----------2-2-2/5-5-5--0---0-0-0-----|

|--------------------------------------------------|
|--------------------------------------------------|
|-4-4-4-4-0-4-4-4-4-4-0----------------2-2-2-2-0-0-|
|-2-2-2-2-2-2-2-2-2-2-0-4-4-4/7-7-7--2-2-2-2-2-2-0-|
|-0---------2-----------4-4-4/7-7-7--2-2-2-2-2-0---|
|-----------0-----------2-2-2/5-5-5--0---0-0-0-----|

Bridge: Fig 1

|-----0-0-----0-0-----0-0-0-----0-0-----0-0-----0-0-----0-0
|-----0-0-----0-0-----0-0-0-----0-0-----0-0-----0-0-----0-0
|-6-6-----6-6-----6/9-9-9-9-9-9-----7-7-----7-7-----7-7----
|-x-x-----x-x-----x---x-x-x-x-x-----x-x-----x-x-----x-x----
|-4-4-----4-4-----4/7-7-7-7-7-7-----5-5-----5-5-----5-5----
|----------------------------------------------------------

|-----0-0-----0-0-----0-0-0-----0-0-----0-0-----0-0-----0-0
|-----0-0-----0-0-----0-0-0-----0-0-----0-0-----0-0-----0-0
|-6-6-----6-6-----6/9-9-9-9-9-9-----7-7-----7-7-----7-7----
|-x-x-----x-x-----x---x-x-x-x-x-----x-x-----x-x-----x-x----
|-4-4-----4-4-----4/7-7-7-7-7-7-----5-5-----5-5-----5-5----
|----------------------------------------------------------

|-----0-0-----0-0-----0-0-0-----0-0-----0-0----------------
|-----0-0-----0-0-----0-0-0-----0-0-----0-0----------------
|-6-6-----6-6-----6/9-9-9-9-9-9-----7-7-----7/12-12-12-12--
|-x-x-----x-x-----x---x-x-x-x-x-----x-x-----x-----x--x--x--
|-4-4-----4-4-----4/7-7-7-7-7-7-----5-5-----5/10-10-10-10--
|----------------------------------------------------------

|-----0-0-----0-0-----0-0-0-----0-0-----0-0----------------
|-----0-0-----0-0-----0-0-0-----0-0-----0-0----------------
|-6-6-----6-6-----6/9-9-9-9-9-9-----7-7-----/12-12-12-12-12
|-x-x-----x-x-----x---x-x-x-x-x-----x-x----------x--x--x--x
|-4-4-----4-4-----4/7-7-7-7-7-7-----5-5-----/10-10-10-10-10
|----------------------------------------------------------

Pre-chorus before last chorus: Fig 1
light distortion

|--------------------------------------------------|
|--------------------------------------------------|
|---4-4-4-0-4-4-4-4-4-0----------------2-2-2-2-0-0-|
|---2-2-2-2-2-2-2-2-2-0-4-4-4/7-7-7--2-2-2-2-2-2-0-|
|-0---------2-----------4-4-4/7-7-7--2-2-2-0-0-0---|
|-----------0-----------2-2-2/5-5-5--0-------------|

|--------------------------------------------------|
|--------------------------------------------------|
|---4-4-4-0-4-4-4-4-4-0-------------------9/11-11--|
|---2-2-2-2-2-2-2-2-2-0-4-4-4/7-7-7--2-0--x-----x--|
|-0---------2-----------4-4-4/7-7-7--2-0--7/9---9--|
|-----------0-----------2-2-2/5-5-5--0-------------|

Ending Note: 

|-----|
|-----|
|--4--|
|--2--|
|--0--|
|-----|
Suggest correction
comments
print report bad tab
2 comments total.
0 reply
tza 3,422 Feb 28, 2002 07:00 PM

version 5 is the right one.

0 reply
funkey munkey 620 Feb 28, 2002 07:00 PM

This looks very simular to the one in the book you know!!!!!!! DEAR OH DEAR!

guest
You may want to rate the tab now too:
select rating
Wanna post a correction for this tab? Suggest correction