Oops, an error
Loading. Please wait.

Wish You Were Here Tab

version 8
by Incubus
2,988 views 3 this week
no commentswrite comment
1 2 3 4 5
x 4
add to favorites
launch autoscroll
font size
0
reset
how to read this tab
guitar tuner
backing track
0:00
0:00
×
Best way to learn
"Wish You Were Here"
Autoscroll
slow
fast
+/-
esc
set tempo
stop
Author
Author/Artist: Incubus
Title: Wish you were here

/ slide up
\ slide down
p pull off
h hammer on


Tuning (eb A D G B E), Down ~ 10%, (eb, D) Down ~ 20%
Live Standard Tuning, Down ~ 10%
Key: (D + C#), Mode D


-----|---------------------------------------------------------|
-----|---------------------------------------------------------|
-----|----4-4p2----4-x-x-4--4p2---------------x-2-2p0--2--2p0--|
-----|----2-2------2-x-x-2--2-----------------x-2-2p0--2--2p0--|
-----|-0--------2---------------9--9-9-12-12-------------------|
-----|--------------------------8--8-8-13-13-------------------|

 
  Intro 



-----|-------------------------------------------------------------|
-----|-------------------------------------------5--5--------------|
-----|----4-4p2----4-x-x-4--4p2----------------x-4--4--x-9/11--11--|
-----|----2-2------2-x-x-2--2------------------x-7--7--x-x-----x---|
-----|-0--------2---------------9--9-9-9-12-12---7--7----7/9---9---|
-----|--------------------------8--8-8-8-13-13---------------------|








-----|-----------------------------------------------------|
-----|-0--0-0-0--0--0-0--0-------------------0-0----0--0---|
-----|-4--4-4-4--4--4-4--4p2---------------x-4-4p2--4--4p2-|
-----|-2--2-2-2--2--2-2--2-----------------x-2-2----2--2---|
-----|-0--0-0-2--2--2-2--2---9--9-9-12-12----0-0----0--0---|
-----|-----------------------8--8-8-13-13------------------|

 

  Intro / Chorus








-----|---2---2---2-----------------------2---2---2------------4-----2----0---0---0--|
-----|-5---5---5-----------------------5---5---5------------5---5-2----5---5---5----|
-----|------------------------21----------------------------------------------------|
-----|-----------------------------18-19--------------------------------------------|
-----|-------------16-14h16-----------------------16-14h16--------------------------|
-----|------------------------------------------------------------------------------|

 
  Verse






-----|------------------|--|-------------------------------------------------|
-----|------------------|--|-------------------------------------------------|
-----|-6----/-9--7------|--|-------------------------------------------------|
-----|-x------x--x------|--|-------------------------------------------------|
-----|-4----/-7--5------|--|-------------------------------------------------|
-----|------------------|--|-------------------------------------------------|

 

  Bridge 
Suggest correction
comments
print report bad tab
guest
You may want to rate the tab now too:
select rating
Wanna post a correction for this tab? Suggest correction